Smashing Pumpkins - 1979 Chords & Tabs

 

1979 Chords & Tabs

Smashing Pumpkins Chords & Tabs

Version: 1 Type: Tab 1 rating
1 star 2 stars 3 stars 4 stars 5 stars
comments

1979 Tab

|---------------------------------------------------------------------
|---------------------------------------------------------------------
|----8--8--8--8--8--8--8--8--9---4--4--4--4--4------------------------
|----x--x--x--x--x--x--x--x--x---x--x--x--x--x---------6b--6--4--2--4-
|----6--6--6--6--6--6--6--6--7---2--2--2--2--2--0--0---0---0--0--0--0-
|---------------------------------------------------------------------


|---------------------------------------------------------------------
|---------------------------------------------------------------------
|---------------------------------------------------------------------
|----6-----9--9--9--9-------------------------------------------------
|----0--0--0--0--0--0-------------------------------------------------
|-----------------------0---0-----------------------------------------


|----0---0---0---0---0---0---0----------------------------------------
|----0---0---0---0---0---0---0----------------------------------------
|----9---9---9---9---9---9---9-----8---8---8---8---8---8---8---8------
|----7---7---7---7---7---7---7-----9---9---9---9---9---9---9---9------
|----9---9---9---9---9---9---9-----9---9---9---9---9---9---9---9-(0-0)
|----------------------------------7---7---7---7---7---7---7---7------

[ Tab from: http://www.guitartabs.cc/tabs/s/smashing_pumpkins/1979_tab.html ]
|----0---0---0---0---0---0---0---0-----0---0---------0---0---0--------
|----0---0---0---0---0---0---0---0-----0---0---------0---0---0--------
|----9---9---9---9---9---9---9---9-----9---9---x-x---4---4---4--------
|----9---9---9---9---9---9---9---9-----9---9---x-x---x---x---x--------
|----7---7---7---7---7---7---7---6-----6---6---x-x---2---2---2--0---0-
|----0---0---0---0---0---0---0---0-----0---0---------0---0---0--0---0-


|---------------------------------------------------------------------
|---------------------------------------------------------------------
|---------------------------------------------------------------------
|----6b--6--4--2--4--6------9--9--9--9--------------------------------
|----0---0--0--0--0--0--0---0--0--0--0--------------------------------
|---------------------------------------0--0--------------------------


|-----------------0---0---0-----------0---0---0---0---0---0---0---0---
|-----------------0---0---0-----------0---0---0---0---0---0---0---0---
|-----3---3---3---3---3---3-\-6---6---6---6---6---6---6---6---9---9---
|-----4---4---4---4---4---4-\-7---7---7---7---7---7---7---7---9---9---
|-----4---4---4---4---4---4-\-7---7---7---7---7---7---7---7---7---7---
|-----2---2---2---2---2---2-\-5---5---5---5---5---5---5---5---0---0---


|---------------------------------------------------------------------
|---0---0---0---0---0---0---0---0---0---0---0---0---0---0---0---0---0-
|---4---4---4---4---4---4---4---4---4---4---4---4---4---4---4---4---4-
|---4---4---4---4---4---4---4---4---4---4---4---4---4---4---4---4---4-
|---2---2---2---2---2---2---2---2---2---2---2---2---2---2---2---2---2-
|---------------------------------------------------------------------


|-------------------------------0---0---0---0---0---0---0---0---0-----
|---0---0---0---0---0---0---0---0---0---0---0---0---0---0---0---0-----
|---6---6---6---6---6---6---6---6---6---6---6---6---6---6---6---6-----
|---6---6---6---6---6---6---6---7---7---7---7---7---7---7---7---7-----
|---4---4---4---4---4---4---4---0---0---0---0---0---0---0---0---0-----
|---------------------------------------------------------------------
Comments