Smashing Grapes - My Girlfriend Is Ghetto Chords & Tabs

 

My Girlfriend Is Ghetto Chords & Tabs

Smashing Grapes Chords & Tabs

Version: 2 Type: Tab 0 ratings
1 star 2 stars 3 stars 4 stars 5 stars
comments

My Girlfriend Is Ghetto Tab

Author/Artist: Smashing Grapes
Title: My Girlfriend Is Ghetto
Website: http://smashinggrapes.cjb.net

Music By: Kenneth Peng
Words By: Kenneth Peng & Danny Vazquez

INTRO/VERSES
------------------------------------------------------------------------------|
------------------------------------------------------------------------------|
------------------------------------------------------------------------------|
--7--7-7-0-5-5-5--------------------------------------------------------------|
--7--7-7-0-5-5-5--------------------------------------------------------------|
--5--5-5-0-3-3-3--------------------------------------------------------------|

INTERLUDE 1
------------------------------------------------------------------------------|
------------------------------------------------------------------------------|
------------------------------------------------------------------------------|
-3-3---5-5-5-7--7-7-7-7-7-7-7-------------------------------------------------|
-3-3-x-5-5-5-7--7-7-7-7-7-7-7-------------------------------------------------|
-1-1-x-3-3-3-5--5-5-5-5-5-5-5-------------------------------------------------|
[ Tab from: http://www.guitartabs.cc/tabs/s/smashing_grapes/my_girlfriend_is_ghetto_tab_ver_2.html ]
INTERLUDE 2
------------------------------------------------------------------------------|
------------------------------------------------------------------------------|
-5-5--------------------------------------------------------------------------|
-5-5-x-5-5-5-7--7-7-7-7-7-7-7-------------------------------------------------|
-3-3-x-5-5-5-7--7-7-7-7-7-7-7-------------------------------------------------|
-------3-3-3-5--5-5-5-5-5-5-5-------------------------------------------------|

INTERLUDE 3
------------------------------------------------------------------------------|
------------------------------------------------------------------------------|
-7-7--------------------------------------------------------------------------|
-7-7-x-5-5-5-7--7-7-7-7-7-7-7-------------------------------------------------|
-5-5-x-5-5-5-7--7-7-7-7-7-7-7-------------------------------------------------|
-------3-3-3-5--5-5-5-5-5-5-5-------------------------------------------------|


My girlfriend is ghetto
But I didn't know
I just didn't notice
that her car rides down low

She wears Fubu and Tommy
and Sean John and Lugs
How didn't I notice, she hung out with thugs

INTERLUDE 1 x3

One night she came over
and say "Yo my dogg"
She stole my TV
while I was dropping a log

Her pants are so baggy
and they touch the ground
they get so dirty,
as she walks around

INTERLUDE 2 x3

Her car has hydrolics
it's orange and red
she tries to play music
but her speakers are dead

Oh,
she's so ghetto
how didn't I see
Whenever I pee
She steals money from me

INTERLUDE 3 x3

A week ago, I bought her a rug
the minute I left,
she sold it for drugs
oh, ghetto.....oooohhh, so ghetto.

She listens to hip-hop,
reggae and rap
It's so annoying
just don't like that crap

INTERLUDE 1 x3

Oh,
My girlfriend is ghetto,
how couldn't I see
But she is the ghetto
the ghetto for me

-------------------------------------------------------------
VISIT http://smashinggrapes.cjb.net FOR FREE SMASHING GRAPES DOWNLOADS!
-------------------------------------------------------------
Comments