Smash Mouth - Your Man Chords & Tabs

 

Your Man Chords & Tabs

Smash Mouth Chords & Tabs

Version: 1 Type: Tab 0 ratings
1 star 2 stars 3 stars 4 stars 5 stars
comments

Your Man Tab

Artist: Smash Mouth
Album:  Smash Mouth
Song:  Your Man

It's not perfect but it's a start.  It's a pretty easy song and I  haven't seen any tabs for the new Smashmouth CD.  
The song is in Drop D and I don't know the rhythm, but just listen to the CD for it and the Changes.

Verse-

G--4--x--4--x--x--4--x--x--x-
D--4--2--4--6--2--4--2--4--2-
A--2--2--2--6--2--2--2--4--2-
D--x--2--x--6--2--x--2--4--2-

G--4--x--4--x--x--4--x--x--x-
D--4--2--4--6--2--4--2--4--6-
A--2--2--2--6--2--2--2--4--6-
D--x--2--x--6--2--x--2--4--6-

Chorus-

G--x--x--4--x
D--1--2--4--2
A--1--2--2--2
D--1--2--x--2

G--x--x--4--x
D--1--2--4--4
A--1--2--2--4
D--1--2--x--4


2nd verse-  Same as the first


verse addition (after the 2nd verse)

G--x--x--4--3--x--x--4
D--7--2--4--3--7--2--4
A--7--2--2--1--7--2--2  
D--7--2--x--x--7--2--x
[ Tab from: http://www.guitartabs.cc/tabs/s/smash_mouth/your_man_tab.html ]
Chorus- (heavy distortion)

Bridge-  (I don't have the solo)

G--4--3--x--x--x--x--x--x
D--4--3--6--1--6--1--2--4
A--2--1--6--1--6--1--2--4
D--x--x--6--1--6--1--2--4

G--4--3--x--x--x--x--x---x
D--4--3--6--1--6--1--11--13
A--2--1--6--1--6--1--11--13
D--x--x--6--1--6--1--11--13

Chorus(muted)

Interlude

G--X--x--4--x--x--x--4--x
D--6--2--4--2--6--2--4--4
A--6--2--2--2--6--2--2--4
D--6--2--x--2--6--2--x--4

G--4--3--x--x--x----4--3--x--x--x--x
D--4--3--6--2--4----4--3--7--2--4--5
A--2--1--6--2--4----2--1--7--2--4--5
D--x--x--6--2--4----x--x--7--2--4--5

Outro

G--x--x--4--x  (repeat once)
D--1--2--4--2
A--1--2--2--2
D--1--2--x--2

then repeat the last two chords over and over, ending with (xx442x)

I'm sorry if this tab might be confusing, it's only my second.  If anybody has any ideas on other new
Smashmouth songs please post them.  



Comments