Smash Mouth - Walking On The Sun Chords & Tabs

 

Walking On The Sun Chords & Tabs

Smash Mouth Chords & Tabs

Version: 3 Type: Bass Tab 0 ratings
1 star 2 stars 3 stars 4 stars 5 stars
comments

Walking On The Sun Bass Tab

Intro:                                                  x2
|-----------|---------------|-------------|------------|
|----3---5--|----5-----4----|---2-----4---|---5-----4--|
|-0--2-0-4--|----7-----5----|---3-----5---|---7-----5--|
|-----------|---------------|-------------|------------|
[ Tab from: http://www.guitartabs.cc/tabs/s/smash_mouth/walking_on_the_sun_btab_ver_3.html ]
Verse:                        x11                     Repeat Verse
|----------0---|--2----------|   |------------|-----------|
|-------0------|-----2-0--2--|   |------0--0--|-2222-2222-|
|-0---3--------|-------------|   |-0--3-------|-----------|
|--------------|-------------|   |------------|-----------|


Its that ez
Comments