Smash Mouth - Then The Morning Comes Chords & Tabs

 

Then The Morning Comes Chords & Tabs

Smash Mouth Chords & Tabs

Version: 1 Type: Tab 0 ratings
1 star 2 stars 3 stars 4 stars 5 stars
comments

Then The Morning Comes Tab

   
Then the Morning Comes
Tabbed by Stringwave5, Song by Smash Mouth

Tune down half a step for all Smash Mouth Songs.


Drum intro
    C#m
                  1/2 bend                        1/2 
Eb |----------------|----------------|--------------|
Bb |----------------|----------------|--------------|
Gb |----------------|----------------|--------------|
Db |-------2-4----4-|------(4)-2-----|-------2-4--4-|
Ab |---4-4----------|------------4-2-|4--4-4--------|
Eb |----------------|----------------|--------------|


                                1/2 
Eb |----------------|----------------|--------------|
Bb |----------------|----------------|--------------|
Gb |----------------|----------------|--------------|
Db |------(4)-2-----|-------2-4-4----|-----(4)-2----|
Ab |------------4-2-|4--4-4----------|-----------4-2|
Eb |----------------|----------------|--------------|

                                      C#m
                  Grad bend 1/2-------|
Eb |----------------|----------------|--------------|
Bb |----------------|----------------|--------------|
Gb |---------4----3-|----------------|(4)-----------|
Db |-------2--------|----------------|--------------|
Ab |4--4-4----------|----------------|--------------|
Eb |----------------|----------------|--------------|
                                        Paint the...

C#m
  Paint the town, take a bow, thank everybody,
C#m
  You're gonna do it again.
C#m
  You are the few, the proud, you are the antibody,
C#m
  Mind, soul and Zen.

Prechorus:
C#m
  And the world's a stage/craze 
          (and the world's a faze)
               riff 1
And the end is near....

Riff 1 (don't play until needed)
    G#7
Eb |--4-4----4-4----|
Bb |--4-4----4-4----|
Gb |--5-5----5-5----|
Db |--6-6----6-6----|
Ab |----------------|
Eb |----------------|

C#m
  So push rewind, just in time, thank anybody
C#m
  You're gonna do it again.

Chorus:
N.C.                E       A
  The way that you walk,
B               A             E 
  It's just the way that you talk,
        A         B
Like it ain't no thing
    A            E      A       G#7
And every single day is just a fling,
(end chorus)
Then the morning...
    C#m
                   1/2 bend
Eb |----------------|----------------|--------------|
Bb |----------------|----------------|--------------|
Gb |----------------|----------------|---------4--3-|
Db |-------2-4----4-|-----(4)-2------|-------2------|
Ab |---4-4----------|-----------4-2--|4--4-4--------|
Eb |----------------|----------------|--------------|
    comes.

[ Tab from: http://www.guitartabs.cc/tabs/s/smash_mouth/then_the_morning_comes_tab.html ]
2nd verse:
Take your knocks, shake them off, duck everybody,
You're gonna take them again.
You are your foe, your friend, you are the paparazzi,
You are the tragedian.

(Prechorus)

(chorus)

And when it comes it
C#         F#
Moves, so slow,
                  C#                 F#
Kind of like it's saying I told you so,
        C#               F#
Looking back before she goes,

Tomorrow's gonna...
(Orchestra hits)
Repeat 4 times (hurt only once)
  
    A#m        D#5
Eb |----------------|
Bb |----------------|
Gb |----10--6--8----|
Db |----------------|
Ab |----8---4--6----|
Eb |5---------------|
    (hurt)

Interlude:
    C#m     F#       C#m      F#      C#m  
           1/4      1/4                          1/2
Eb |---7-7--7---6-6-|6---4----3-4-3-4|--------------|
Bb |----------------|----------------|--------------|
Gb |----------------|----------------|--------------|
Db |----------------|----------------|------2-4--4--|
Ab |----------------|----------------|--4-4---------|
Eb |----------------|----------------|--------------|


    C#m         F#        C#m    F#       C#m    F#
Eb |---------------------|-------------|------------|
Bb |---------------------|-------------|------------|
Gb |---------------------|-------------|------------|
Db |(5)(5)(5)(5)(5)(5)4-2|-------------|------------|
Ab |---------------------|4------------|------------|
Eb |---------------------|-------------|------------|

    C#m   
                 Grad bend 1/2
Eb |----------------|----------------|--------------|
Bb |----------------|----------------|--------------|
Gb |--------4----3--|----------------|(4)-----------|
Db |------2---------|----------------|--------------|
Ab |--4-4-----------|----------------|--------------|
Eb |----------------|----------------|--------------|
                                      And the...


C#m
  And the world's a stage (and the world's a faze)
                Riff 1
And the end is near

C#m
  So push rewind, just in time, thank anybody
C#m                            E        A
  It's just the way that you walk!
B               A             E
  It's just the way that you talk
        A           B
Like it ain't know thing
    A            E      A       G#7
And every single day is just a fling,
N.C.
Then the morning comes.

	EADGBE
C#m	x46654
G#7	464574
E    022100
A    x02220
B    x24442
C#   x46664
F#   244322
A#m	x13321
D#5	xx134x
N.C.	xxxxxx

Man I love this song.
Any corrections or help w/ playing it e-mail me at stringwave5@yahoo.com.
Comments