Smash Mouth - Disconnect The Dots Chords & Tabs

 

Disconnect The Dots Chords & Tabs

Smash Mouth Chords & Tabs

Version: 2 Type: Bass Tab 0 ratings
1 star 2 stars 3 stars 4 stars 5 stars
comments

Disconnect The Dots Bass Tab

   
  BTAB: Disconnect The Dots
Artist: Smashmouth
 Album: Fush Yu Mang
Author: Rattman (jratt0@hotmail.com)

**Padrino's Bass Tab Exclusive!**

Intro:
G--------------------------
D--------------------------
A--------------------------
E-10-11-11-10-11-11-10-11\-

[drums enter]
[ Tab from: http://www.guitartabs.cc/tabs/s/smash_mouth/disconnect_the_dots_btab_ver_2.html ]
Chorus/Horn Riff:
 "Stay up man..."
G----------------------------------------------------------------------
D----------------------0-3-0h3---0-3-0---3-6-3---3-6-3-----------------
A-----3---3-----3----1---------1-------4-------4---------3-6-3---------
E-1-4---4---1-4---4------------------------------------4-------3-3-3-3-
           
                                       "Disconnect the dots..."
G-------------------------------------------------------------------
D----------------------0-3-0h3---0-3-0------------------------------
A-----3---3-----3----1---------1--------5-6-6-5-6-6-5-6-5-6-6-5-6-6-
E-1-4---4---1-4---4-------------------------------------------------
                                        ^play loud
G--------------------
D--------------------
A--------------------
E-4-4-4-4--3-3-3-3-3-

      

Verse:
G-----------------------------------------------------------------------
D---------------------------------------0-3-0h3---0-3-0---0-3-0---------
A---3-6-3-6---3-6-3-----3---3-----3---1---------1-------1---------------
E-4---------4-------1-4---4---1-4---4-----------------------------------

G-----------------
D-----------------
A---3-6-3---------
E-4-------3-3-3-3-


Taken from Padrino's Bass Tab Archive: http://members.xoom.com/jszalma/
Comments