Smash Mouth - All Star Chords & Tabs

 

All Star Chords & Tabs

Smash Mouth Chords & Tabs

Version: 9 Type: Tab

All Star Tab

---------------------------------------------------------------
Song: Smash Mouth - All Star
Tabed By: Scrath
---------------------------------------------------------------
Enjoy....

[ Tab from: http://www.guitartabs.cc/tabs/s/smash_mouth/all_star_tab_ver_9.html ]
E||--10----7----------------------------------------------------------------|
B||-------------10----8------12----13----12----10---------------------------|
G||----------------------------------------------------12----9--------------|
D||---------------------------------------------------------------12--------|
A||-------------------------------------------------------------------------|
E||-------------------------------------------------------------------------|

____________
uilVeaminJs