Smash Mouth - All Star Chords & Tabs

 

All Star Chords & Tabs

Smash Mouth Chords & Tabs

Version: 4 Type: Tab 0 ratings
1 star 2 stars 3 stars 4 stars 5 stars
comments

All Star Tab

   
Artist: Smashmouth
Album:
Song: All Star

Submitted by Steve D (sjd285@aol.com)
------------------------------------------------

Verse- 

     F#      C#     G#m        B
e|---2-------4-4-----4---------2---2----| | 
B|---2-------6-6-----4---------4---4----| |
G|---3-------6-6-----4---------4---4----|:|  
D|---4-------6-6-----6---------4---4----| |
A|--------------------------------------| |
E|--------------------------------------| |
     1 + 2 + 3 + 4 + 1 + 2 + 3 + 4 +

Chorus-
     F#5         B#5          C?           B#5
e|-------------------------------------------------------| |
B|-------------------------------------------------------| |
G|---------------4--4--4--xx--5--5--5--xx--4--4--xxxx----|:|
D|---4--4--xxxx--4--4--4--xx--4--4--4--xx--4--4--xxxx----| |
A|---4--4--xxxx--2--2--2--xx--3--3--3--xx--2--2--xxxx----| |
E|---2--2--xxxx------------------------------------------| |
 

 Repeat twice then:

e|---------------------------------|
B|---------------------------------|
G|---------------------------4-----|
D|---4--4--xxxx--2--2--xxxx--4-----|
A|---4--4--xxxx--2--2--xxxx--2-----|
E|---2--2--xxxx--0--0--xxxx--------|
     

------------------------------------------------
Bass Line


Verse-  

G|---------------------------------------------------| |
D|---------------------------------------------------|:|
A|-------3-4---6-----1-2---4-----3-4---6-----1-2---4-| |
E|---2-----------4-----------2-----------4-----------| |


Interlude-

G|------------------------| |
D|------------------------|:|
A|-------2---2-3---2------| |
E|---2--------------------| |


Lyrics:

[Verse 1]
Somebody once told me 
the world is gonna roll me
I ain't the sharpest tool in the shed
She was lookin' kinda dumb 
with her finger and her thumb
In the shape of an "L" on her forehead
[ Tab from: http://www.guitartabs.cc/tabs/s/smash_mouth/all_star_tab_ver_4.html ]
Well the years start comin' 
and they don't stop comin'
Fed to the rules and I hit the ground running
Didn't make sense not to live for fun
Your brain gets smart but your head gets dumb
So much to do so much to see
so what's wrong with takin' the backstreets?
You'll never know if ya don't go
You'll never shine if you don't glow

[Chorus]
Hey now you're an all star
Get your game on 
Go play
Hey now you're a rock star
Get the show on
Get paid
And all that glitters is gold
Only shootin' stars break the mold

[Verse 2]
It's a cool place
and they say it gets colder
You're bundled up now
wait till ya get older
But the media men beg to differ
Judging by the hole in the satelite picture

The ice we skate
is gettin' pretty thin
The water's gettin' warm 
so you might as well swim
My world's on fire
How bout yours?
That's the way I like it
and I'll never get bored

[Chorus]

[Interlude]
(Record scratches over "Go for the moon")

[Chorus 2]
Hey now you're an all star
Get your game on 
Go play
Hey now you're a rock star
Get the show on
Get paid
And all that glitters is gold
Only shootin' stars break the...

[Verse 2]
Somebody once asked
could I spare some change for gas
I need to get myself away from this place
I said "Yep, what a concept 
I could use a little fuel myself
And we could all use a little change"

Well the years start comin' 
and they don't stop comin'
Fed to the rules and I hit the ground runnin'
Didn't make sense not to live for fun
Your brain gets smart but you're head gets dumb
So much to do so much to see 
So what's wrong with takin' the backstreets?
You'll never know if ya don't go
You'll never shine if ya don't glow

[Chorus 3]
Hey now you're an all star
Get your game on 
Go play
Hey now you're a rock star
Get the show on
Get paid
And all that glitters is gold
Only shootin' stars break the mold
And all that glitters is gold
Only shootin' stars break the mold
Comments