Smash Mouth - All Star Chords & Tabs

 

All Star Chords & Tabs

Smash Mouth Chords & Tabs

Version: 2 Type: Tab 3 ratings
1 star 2 stars 3 stars 4 stars 5 stars
comments

All Star Tab

   
ARTIST: Smashmouth
TITLE: ALLSTAR
Transcribed by: jerrybean@hotmail.com


Standard Tuning


Basic chords used:

    F#         B          C#
e---2----------2----------4--
B---2----------4----------6--
G---3----------4----------6--
D---4----------4----------6--
A---4----------2----------4--
E---2------------------------



Verses 1 & 2:

(play in upstrokes-listen to the song to get exact timing)

    F#         C#                          B        
e---2----------4---4------------4----------2-----2----------      
B---2----------6---6------------6----------4-----4----------     
G-----------------------------------------------------------
D-----------------------------------------------------------
A-----------------------------------------------------------
E-----------------------------------------------------------
  repeat 8 times for each verse


CHORUS
[ Tab from: http://www.guitartabs.cc/tabs/s/smash_mouth/all_star_tab_ver_2.html ]
   F#           B            C#           B
e-------------------------------------------------
B----------------4------------6------------4------       
G---3------------4------------6------------4------
D---4------------4------------6------------4------
A---4------------2------------4------------2------
E---2---------------------------------------------
  repeat 4 times


Verse 3

   F#
e------------------------------------------------------------------
B-----------2-----------------6---------------4------------4-------
G---------------------------------6-------4-------4------------4---
D-------4-------4--------------------------------------------------
A-------------------------4-----------2----------------2-----------
E---2--------------------------------------------------------------


So here is the order of the whole song:

Verse 1
Chorus
Verse 2
Chorus
Whistling solo (sorry, I have no idea how to transcribe whistling)
Chorus
Verse 3
Chorus

That's all there is to it.
If you have any questions, comments, corrections, or whatever else,
send them
to -------->  jerrybean@hotmail.com
Comments