Smash Mouth - All Star Chords & Tabs

 

All Star Chords & Tabs

Smash Mouth Chords & Tabs

Version: 1 Type: Bass Tab 0 ratings
1 star 2 stars 3 stars 4 stars 5 stars
comments

All Star Bass Tab

SMASH MOUTH - "All Star" - Bass Tab

Common Time(4/4)
Standard Tuning(EADG)

VERSE:           _____          _____
                |all except    |the last time
|--------------|--------------|-----------|
|*-------------|-------------*|-----------|
|*-----3-4-r-6-|-----1-2-r-4-*|-----1-2---|
|--2-r---------|-4-r----------|-4-r-----0-|
   1 2 & 3 4 &   1 2 & 3 4 &    1 2 & 3 4

CHORUS:
|------------------|-----------------|-----------------|
|*-----------------|-----------------|-----------------|
|*-----------------|-2-2-2-2-2-2-2-2-|-3-3-3-3-3-3-3-3-|
|--2-2-2-2-2-2-2-2-|-----------------|-----------------|
   1 & 2 & 3 & 4 &   1 & 2 & 3 & 4 &   1 & 2 & 3 & 4 &

|------------------|-----------------|---------|
|-----------------*|-----------------|---------|
|-2-2-2-2-2-2-2-2-*|-----------------|-2-2-2-2-|
|------------------|-2-2-2-2-0-0-0-0-|---------|
  1 & 2 & 3 & 4 &    1 & 2 & 3 & 4 &   1 2 3 4


INTERLUDE:
|-----------|---------|
|-----.---.-|-.---.---|
|-.---2-r-2-|-3-r-2-r-|
|-2-r-------|---------|
  1 2 3 4 &   1 2 3 4
[ Tab from: http://www.guitartabs.cc/tabs/s/smash_mouth/all_star_btab.html ]
LAST VERSE:
                         (x3)
|--------------|--------------|-------------|---------|
|*-------------|-------------*|-------------|---------|
|*-----3-4-r-6-|-----1-2-r-4-*|-----3-4-r-6-|---------|
|--2-r---------|-4-r----------|-2-r---------|-4-r-r-r-|
   1 2 & 3 4 &   1 2 & 3 4 &    1 2 & 3 4 &   1 2 3 4 

                 (x4)
|----------|----------|
|*---------|---------*|
|*-----2---|-3---2---*|
|--2-------|----------|
   1 2 3 4   1 2 3 4


END:
|------------------|-----------------|-----------------|
|*-----------------|-----------------|-----------------|
|*-----------------|-2-2-2-2-2-2-2-2-|-3-3-3-3-3-3-3-3-|
|--2-2-2-2-2-2-2-2-|-----------------|-----------------|
   1 & 2 & 3 & 4 &   1 & 2 & 3 & 4 &   1 & 2 & 3 & 4 &

               (x5)
|------------------|-----------------|---------|
|-----------------*|-----------------|---------|
|-2-2-2-2-2-2-2-2-*|-----------------|-2-------|
|------------------|-2-2-2-2-0-0-0-0-|---------|
  1 & 2 & 3 & 4 &    1 & 2 & 3 & 4 &   1 2 3 4


By: Johari Taylor
E-mail: viking@powerup.com.au, or s369700@student.uq.edu.au
More Bass Tabs: http://www.powerup.com.au/~viking/basstab.htm


Comments