Smalltown Poets - Everything I Hate Chords & Tabs

 

Everything I Hate Chords & Tabs

Smalltown Poets Chords & Tabs

Version: 2 Type: Bass Tab 0 ratings
1 star 2 stars 3 stars 4 stars 5 stars
comments

Everything I Hate Bass Tab

Everything  I  Hate
Smalltown Poets
from Smalltown Poets
tabbed by Jared Gardner           hansolo@integrityonline10.com

my first tab - woohoo!  if you find anything wrong with it, e-mail me and i'll fix it

G|--------------------------------------------
D|--------------------------------------------  intro, 2x
A|--0--0--0-3-5-555-3530-0--0--0-3-5-555-3530-  verse, 4x
E|--------------------------------------------

G|------------------
D|------------------  little part between verse and chorus
A|--0--0--0-0-3-5---
E|------------------

G|--------------------------------
D|-------------------------------- prechorus
A|--5--5--5--0--0--0-3-5-3-0------ 2x first time, 4x second time 
E|--------------------------------
[ Tab from: http://www.guitartabs.cc/tabs/s/smalltown_poets/everything_i_hate_btab_ver_2.html ]
G|----------------------------------------------------
D|--5--5-5-5-5---3--3-3-3-3---5--5-5-5-5---0--0-0-0-0-  chorus - 4x
A|----------------------------------------------------
E|----------------------------------------------------

G|-----------------------
D|--5--5--5--3--3--3--2-- careful . . . part - 2x 
A|-----------------------
E|-----------------------

G|-------------------------------------
D|-------------------------------------  almost-acapella chorus - 2x 
A|--5---5---0---0---2---2--------------
E|-----------------------------3---3---

G|----------------------------------------------
D|----------------------------------------------  outtro - 1x
A|--0--0--0-3-5-55-3-5-3-0-0--0--0-3-5-55-5-3-0-
E|----------------------------------------------

my first tab - woohoo!  if you find anything wrong with it, e-mail me and i'll fix it


Comments