Small Faces - Tin Soldier Intro Chords & Tabs

 

Tin Soldier Intro Chords & Tabs

Small Faces Chords & Tabs

Version: 1 Type: Tab 0 ratings
1 star 2 stars 3 stars 4 stars 5 stars
comments

Tin Soldier Intro Tab

   
##################################################################################
# This file is the author's own work and represents their interpretation of the  #
# song. You may only use this file for private study, scholarship, or research.  #
##################################################################################

The Small Faces - Tin Soldier

intro
E    G    D    A    E

E(riff 1)
-----------------
-----------------
-----------------
-----0-----0---5-
-0h2---0h2---2---
-----------------
[ Tab from: http://www.guitartabs.cc/tabs/s/small_faces/tin_soldier_intro_tab.html ]
E      G            D       A      E
------------3-------3-2----------- ------------------ 
------------0-----------3---3-2--- ------------------ 
--1-----------0---0-------------2- --------1--------- 
----2-----0-----0---0------------- ----2-2-2-------0- 
------2---------------------0----- ----0-0-----0h2--- 
0-------3------------------------- --0-------0------- 


verse
riff 2
-------------------------
-------------------------
-------------------------
-----2-----0h2-0---------
---2---0h2-------0h2-0h2-
-0-----------------------
E           G           D             A              E
im a little tin solder that wants to jump into your fire(riff 2)
i all need is your whispered hellos smiles melting snow of daybreak

riff 2
C#m
-4-4-----
-5---5---
-6-----6-
-6-------
-4-------
---------
Comments