Small Faces - My Way Of Giving Chords & Tabs

 

My Way Of Giving Chords & Tabs

Small Faces Chords & Tabs

Version: 1 Type: Tab 0 ratings
1 star 2 stars 3 stars 4 stars 5 stars
comments

My Way Of Giving Tab

   
21st December 2000, 11.47am

MY WAY OF GIVING by THE SMALL FACES

Written by Steve Marriott and Ronnie Laine

From 'The Small Faces' (Immediate, 1967)

Chords used:

A:     x02220
Asus4: x02230
E:     022100
D:     xx0232
G:     3x0003

The intro is:

  A             Asus4           
--0----0--0--|--0----0--0--     
--2----2--2--|--3----3--3--     
--2----2--2--|--2----2--2-- (x2)
--2----2--2--|--2----2--2--     
--0----0--0--|--0----0--0--     
-------------|-------------     


The verse tab is:
[ Tab from: http://www.guitartabs.cc/tabs/s/small_faces/my_way_of_giving_tab.html ]
  A             Asus4             A             E
--0----0--0--|--0----0--0--     --0----0--0--|--------------|--------------|
--2----2--2--|--3----3--3--     --2----2--2--|--------------|--------------|
--2----2--2--|--2----2--2-- (x3)--2----2--2--|--------------|--------------|
--2----2--2--|--2----2--2--     --2----2--2--|--------------|--------------|
--0----0--0--|--0----0--0--     --0----0--0--|--------------|--------------|
-------------|-------------     -------------|--0--0--0--0--|--0--0--0--0--|

The chorus goes something like:

  A             D  A  G  A     A             G  D  A
--0----0--0--|--2--0--3--0--|--0----0--0--|--3--2--0----|
--2----2--2--|--3--2--0--2--|--2----2--2--|--0--3--2----|
--2----2--2--|--2--2--0--2--|--2----2--2--|--0--2--2----|
--2----2--2--|--0--2--0--2--|--2----2--2--|--0--0--2----| (x2)
--0----0--0--|-----0--x--0--|--0----0--0--|--x-----0----|
-------------|--------3-----|-------------|--3----------|

And then there's a sort of a middle eight:

  E
--------------|--------------|--------------|--------------|
--------------|--------------|--------------|--------------|
--------------|--------------|--------------|--------------|
--------------|--------------|--------------|--------------|
--------------|--------------|--------------|--------------|
--0--0--0--0--|--0--0--0--0--|--0--0--0--0--|--0--0--0--0--|

So it goes:

Intro

Verse

Chorus

Verse

Chorus

Middle Eight

Chorus

and that's it, have fun n'all that...

Comments