Small Faces - Itchygoo Park Chords & Tabs

 

Itchygoo Park Chords & Tabs

Small Faces Chords & Tabs

Version: 2 Type: Tab 0 ratings
1 star 2 stars 3 stars 4 stars 5 stars
comments

Itchygoo Park Tab

   
##################################################################################
# This file is the author's own work and represents their interpretation of the  #
# song. You may only use this file for private study, scholarship, or research.  #
##################################################################################

The Small Faces - Itchygoo Park

intro
A                   F#m
-----0-X-----0-X------2-X-----2-X-
-----2-X-----2-X------2-X-----2-X-
-----2-X-----2-X------2-X-----2-X-
---2-------2----------------------
---0-------0----------------------
-0-------0-------0--2-----0-2-----

verses
pre chorus
chorus
A          F#m      (D)
its all to beautiful
[ Tab from: http://www.guitartabs.cc/tabs/s/small_faces/itchygoo_park_tab_ver_2.html ]
bridge
 A              C               Dsus4 D     A           
------------------------------------3---0-2---------------
---2---2----------5-------5---5---3-----------2---2---2---
-----2------2-------5-------------------------------------
--------------2-------5---------0-----0-------------------
-0--------0-------------0---0---------------0---0---0---0-
----------------3----------------------------------------
i feel inclided to blow my mind get hung up not feed the ducks without bun

 A             C           Dsus4 D     E           
---9---9---9-----8-----8-------3---0-2-0-
-----------------------------3---------0-
-9---9---9---9-9---9-9---9-------------1-
---------------------------0-----0-----2-
---------------------------------------2-
---------------------------------------0-
they all come out to groove about while i search have fun in the sun
 
Comments