Small Faces - Itchygoo Park Chords & Tabs

 

Itchygoo Park Chords & Tabs

Small Faces Chords & Tabs

Version: 1 Type: Tab 0 ratings
1 star 2 stars 3 stars 4 stars 5 stars
comments

Itchygoo Park Tab

   
##################################################################################
# This file is the author's own work and represents their interpretation of the  #
# song. You may only use this file for private study, scholarship, or research.  #
##################################################################################

Itchygoo Park
Small Faces

capo 2nd fret

G      Em      Bm      F       C
3      0       2       1       0
0      0       3       1       1
0      0       4       2       0
0      2       4       3       2
2      2       2       3       3
3      0       #       1       #

intro
G      Em

riff 1
---------
---------
-0-0-0-0-
-0-2-0-2-
---------
---------

verses
pre chorus
chorus
G           Em      (C)
its all to beatiful
[ Tab from: http://www.guitartabs.cc/tabs/s/small_faces/itchygoo_park_tab.html ]
bridge
 G        F/Bb      F     C       G
                                 )1xbridge       )2xbridge
-3----------------------5-----3- --------------- -----7---7---7-
----------------------6-----5--- ---0---0---0--- ---------------
--------------------5-----5----- --------------- -5s7---7---7---
--------------3--3-------------- -----0---0---0- ---------------
------------1------------------- --------------- ---------------
-3--------1----1---------------- -3------------- ---------------

G                 Bb          F     C     D               
-----7---7-----------6---6--------5-----3---
--------------------------------6-----5-----
-5s7---7---7-----5s7---7---7--5-----5-----2-
------------------------------------------0-
--------------------------------------------
--------------------------------------------



http://www.geocities.com/abc_tabs/

Comments