Small Faces - All Or Nothing Chords & Tabs

 

All Or Nothing Chords & Tabs

Small Faces Chords & Tabs

Version: 2 Type: Tab 0 ratings
1 star 2 stars 3 stars 4 stars 5 stars
comments

All Or Nothing Tab

   
##################################################################################
# This file is the author's own work and represents their interpretation of the  #
# song. You may only use this file for private study, scholarship, or research.  #
##################################################################################


Small Faces - All Or Nothing
[ Tab from: http://www.guitartabs.cc/tabs/s/small_faces/all_or_nothing_tab_ver_2.html ]
intro
D
-------2h3-2-------2h3p2-----
-----3-----------3-------3---
---2-----------2-----------2-
-0-----------0---------------
-----------------------------
-----------------------------
                                   
verses
 A                               D                              D                  (D)A G
                                 )1x                           )2x
------------------------------- -------2h3-2--------2h3p2----- -------2h3-2-------2-------
-------2-----2-------2-------2- -----3-----------3--------3--- -----3-----------3---3-2-0-
-----2-----2-------2---2---2--- ---2-----------2------------2- ---2-----------2-----2-2-0-
---2-----2-------2-------2----- -0-----------0---------------- -0-----------0-------0-2-0-
-0-------------0--------------- ------------------------------ -----------------------0---
------------------------------- ------------------------------ -------------------------3-




chorus
D              (D)A B7            (B7)A G                   D(w/intro)
all or nothing      all or nothing       all or nothing for me


-------2-5s3-------2h3p2-----
-----3-----------3-------3---
---2-----------2-----------2-
-0-----------0---------------
-----------------------------
-----------------------------

chorus change(palm mute)
 D5                           A5 B5                           A5 G5                           G#5 A5   
-----------------------------------------------------------------------------------------------------5-
-----------------------------------------------------------------------------------------------------5-
-2-2-2-2-2-2-2-2-2-2-2-2-2-2-2---------------------------------------5-4-----5-4---------------------6-
-0-0-0-0-0-0-0-0-0-0-0-0-0-0-0-2-4-4-4-4-4-4-4-4-4-4-4-4-4-4-4-2-----5-5-----5-5-------------------7-7-
-------------------------------0-2-2-2-2-2-2-2-2-2-2-2-2-2-2-2-0-5-5-----5-5-----5-5-5-5-5-5-5-6-----7-
-----------------------------------------------------------------3-3-----3-3-----3-3-3-3-3-3-3-4-5---5-
Comments