Small Faces - All Or Nothing Chords & Tabs

 

All Or Nothing Chords & Tabs

Small Faces Chords & Tabs

Version: 1 Type: Chords 0 ratings
1 star 2 stars 3 stars 4 stars 5 stars
comments

All Or Nothing Chords

   
#----------------------------------PLEASE NOTE---------------------------------#
#This file is the author's own work and represents their interpretation of the #
#song. You may only use this file for private study, scholarship, or research. #
#------------------------------------------------------------------------------#
From: pvb@mpe.mpe-garching.mpg.de (Evilio Jose del Rio Silvan)

{textfont: monaco}
All or Nothing
The Small Faces}
From the begining' album

{comment:Intro and 1st verse}

{comment: D & A pattern for Intro and verses}
[ Tab from: http://www.guitartabs.cc/tabs/s/small_faces/all_or_nothing_crd.html ]
[D]
e--------2h3r2-|----------3r2-|--------2h3r2-|----------3r2-|        
B------3-------|------3-------|------3-------|------3-------|        
G----2---------|----2---------|----2---------|----2---------|        
D--0-----------|--0-----------|--0-----------|--0-----------|        
A--------------|--------------|--------------|--------------|         
E--------------|--------------|--------------|--------------|        


[A]
e---------------|---------------|
B-------2-----2-|-------2-----2-|
G-----2---2-----|-----2---2-----|
D---2-------2---|---2-------2---|
A-0-------------|-0-------------|
E---------------|---------------|



/--------------------------------------------------------------------------\
| Evilio Jose del Rio Silvan  | Anywhere you choose,                       |
| delrio@cesr.cnes.fr         | Anyway,  you're gonna lose                 |
| pvb@mpe.mpe-garching.mpg.de |                         - Mike Oldfield    |
|                             |                           "Poison Arrows"  |
\--------------------------------------------------------------------------/
Comments