Sly Caps - The Boring Life Chords & Tabs

 

The Boring Life Chords & Tabs

Sly Caps Chords & Tabs

Version: 2 Type: Tab 0 ratings
1 star 2 stars 3 stars 4 stars 5 stars
comments

The Boring Life Tab

Artist: The Sly Caps
Song: The Boring Life

No one else tabbed the lead guitar in the intro, and some chords were wrong.
Here you go:

(Listen to song for chord rhythms)

Intro:
(0:04)
Guitar 1:
e|---------------------------|---------------------------|----------------------|
B|---------------------------|---------------------------|----------------------|
G|-3~~--3h5~~--5~~-5/7-5-3-5-|--5p3-5--------------------|----------------------|
D|---------------------------|--------5--3--1--3/5--3~~--|-3-3--3h5-3--1-3-1~~--|
A|---------------------------|---------------------------|----------------------|
E|---------------------------|---------------------------|----------------------|

Guitar 2:
e|----------------------|
B|----------------------|
G|---8----5-------------|
D|---8----5----6----8---|
A|---6----3----6----8---|
E|-------------4----6---|


Verse:
(0:27)
e|----------------------|
B|----------------------|
G|---8----5-------------|
D|---8----5----6----8---|
A|---6----3----6----8---|
E|-------------4----6---|

"And nobody likes me because I'm a loser.."


Pre-Chorus:
(0:41)
e|----------------------|
B|----------------------|
G|---8----5-------------|
D|---8----5----6----8---|
A|---6----3----6----8---|
E|-------------4----6---|

"Who am I kidding?.."


Chorus:
(0:46)
e|-----------------------|
B|-----------------------|
G|-----------8---7---5---|
D|---6---8---8---7---5---|
A|---6---8---6---5---3---|
E|---4---6---------------|

"Why would I think that?.."


Back to Intro:
(0:58)
Guitar 1:
e|---------------------------|--------------------------|----------------------|
B|---------------------------|--------------------------|----------------------|
G|-3~~--3h5~~--5~~-5/7-5-3-5-|--3--5--------------------|----------------------|
D|---------------------------|-------5--3--1--3/5--3~~--|-3-3--3h5-3--1-3-1~~--|
A|---------------------------|--------------------------|----------------------|
E|---------------------------|--------------------------|----------------------|

Guitar 2:
e|----------------------|
B|----------------------|
G|---8----5-------------|
D|---8----5----6----8---|
A|---6----3----6----8---|
E|-------------4----6---|

[ Tab from: http://www.guitartabs.cc/tabs/s/sly_caps/the_boring_life_tab_ver_2.html ]
Verse 2:
(1:21)
e|----------------------|
B|----------------------|
G|---8----5-------------|
D|---8----5----6----8---|
A|---6----3----6----8---|
E|-------------4----6---|

"And nobody likes me because I'm a loser.."


Pre-Chorus:
(1:35)
e|----------------------|
B|----------------------|
G|---8----5-------------|
D|---8----5----6----8---|
A|---6----3----6----8---|
E|-------------4----6---|

"Who am I kidding?.."


Chorus:
(1:40)
e|-----------------------|
B|-----------------------|
G|-----------8---7---5---|
D|---6---8---8---7---5---|
A|---6---8---6---5---3---|
E|---4---6---------------|

"Why would I think that?.."

Interlude:
(1:52)
Guitar 1:
e|---------------------|
B|---------------------|
G|-3~~~-5~~~--15b~~~---|
D|---------------------|
A|---------------------|
E|---------------------|

Guitar 2:
e|---------------------|
B|---------------------|
G|-8~--5~--------------|
D|-8~--5~--6~--8-8-8-8-|
A|-6~--3~--6~--8-8-8-8-|
E|---------4~--6-6-6-6-|

Solo: (not tabbed)
(1:56)
Play Verse sections behind solo.


Pre-Chorus:
(2:15)
e|---------------------|
B|---------------------|
G|---8----5------------|
D|---8----5----6-------| *Note: The A# chord is not played.
A|---6----3----6-------|
E|-------------4-------|

"Who am I kidding?.."


Chorus:
(2:21)
e|-----------------------|
B|-----------------------|
G|-----------8---7---5---|
D|---6---8---8---7---5---|
A|---6---8---6---5---3---|
E|---4---6---------------|

"Why would I think that?.."


Back to Intro:
(2:33)
Guitar 1:
e|---------------------------|--------------------------|----------------------|
B|---------------------------|--------------------------|----------------------|
G|-3~~--3h5~~--5~~-5/7-5-3-5-|--3--5--------------------|----------------------|
D|---------------------------|-------5--3--1--3/5--3~~--|-3-3--3h5-3--1-3-1~~--|
A|---------------------------|--------------------------|----------------------|
E|---------------------------|--------------------------|----------------------|

Guitar 2:
e|----------------------|
B|----------------------|
G|---8----5-------------|
D|---8----5----6----8---|
A|---6----3----6----8---|
E|-------------4----6---|


Ending:
(2:42)       (2:46)
e|----------------|
B|----------------|
G|-8---------8\---|
D|-8---------8\---|
A|-6---------6\---|
E|----------------|

Questions? Comments? E-Mail
Comments