Sly Caps - The Boring Life Chords & Tabs

 

The Boring Life Chords & Tabs

Sly Caps Chords & Tabs

Version: 2 Type: Bass Tab 0 ratings
1 star 2 stars 3 stars 4 stars 5 stars
comments

The Boring Life Bass Tab

Artist: The Sly Caps
Song: "The Boring Life"
Transcribed by Kevin Stachelrodt


Intro:

G|---------5--------------------------------------|
D|-----5--8--8--8--5---5--6---5h6--8--8--6--5-----|
A|6--6-----------6----------8------------------8--|
E|------------------------------------------------|

Verse:
[ Tab from: http://www.guitartabs.cc/tabs/s/sly_caps/the_boring_life_btab_ver_2.html ]
G|---------5--------------------------------------|
D|-----5--8--8--8--5---5--6---5h6--8--8--6--5-----|
A|6--6-----------6----------8------------------8--|
E|------------------------------------------------|

Chorus(not too sure about this one):
G|-----------------------------------------------------------|
D|-----------------------------------------------------------|
A|6--------------------6--5--5--5---------6--5--5--5---------|
E|--8--4--6------4--6-------------8--4--6------------8--4--6-|
Comments