Sly And The Family Stone - If You Want Me To Stay Chords & Tabs

 

If You Want Me To Stay Chords & Tabs

Sly And The Family Stone Chords & Tabs

Version: 5 Type: Bass Tab 0 ratings
1 star 2 stars 3 stars 4 stars 5 stars
comments

If You Want Me To Stay Bass Tab

Sly and The Family Stone - If you Want ME to Stay

This is the main riff, it stays the same the whole way through the song with
different fills. You can work them out if you want, otherwise play this.
[ Tab from: http://www.guitartabs.cc/tabs/s/sly_and_the_family_stone/if_you_want_me_to_stay_btab_ver_5.html ]
G-------------------|-----------------|-----------------|
D-8-8---------------|---------------3-|-4-4-4-4-4-4-4-4-|
A-------------------|-------6-4-4-4---|-----------------|
E-----6-6-6-6-6-6-5-|-4-4-4-----------|-----------------|

G-------------------|
D-6-6-6-6-----11-10-|
A---------8-8-------|
E-------------------|
Comments