Slush Fund - Girls Chords & Tabs

 

Girls Chords & Tabs

Slush Fund Chords & Tabs

Version: 1 Type: Tab 0 ratings
1 star 2 stars 3 stars 4 stars 5 stars
comments

Girls Tab

-----------------------------------------------------------------------------
			     Girls - Slush Fund (www.geocities.com/Drakulon666/slushfund.html)
-----------------------------------------------------------------------------
Tabbed by: Zamboni
Email: yowzenwutzee@hotmail.com

Tuning: Standard Concert Pitch

Intro:
e|--------------------------------------------------------------------------|
B|--------------------------------------------------------------------------|
G|--5~-------------------5~------------------5~-----------------------------|
D|--5~---5~--3~---7--5---5~--3~--3~---7--5---5~-----------------------------|
A|--3~---5---3~---7--5---3~--5~--3~---7--5---3~-----------------------------|
E|-------3~--1~---5--3-------3~--1~---5--3----------------------------------|
[ Tab from: http://www.guitartabs.cc/tabs/s/slush_fund/girls_tab.html ]
X2:
e|--------------------------------------------------------------------------|
B|--------------------------------------------------------------------------|
G|--------------------------------------------------------------------------|
D|-----5-----5--------------------------------------------------------------|
A|-3-3---3-3-------5-----5-----3-----3-----7-----5--------------------------|
E|-------------3-3---3-3---1-1---1-1---5-5---3-3----------------------------|

Verse: Repeated as much as nessisary
e|--------------------------------------------------------------------------|
B|--------------------------------------------------------------------------|
G|--5-----------------------------------------------------------------------|
D|--5---5--3---7--5---------------------------------------------------------|
A|--3---5--3---7--5---------------------------------------------------------|
E|------3--1---5--3---------------------------------------------------------|

Pre-Chorus:
e|--------------------------------------------------------------------------|
B|--------------------------------------------------------------------------|
G|--------------------------------------------------------------------------|
D|--7--5--3~----------------------------------------------------------------|
A|--7--5--3~----------------------------------------------------------------|
E|--5--3--1~----------------------------------------------------------------|

Chorus: Same as intro.
Comments