Slunt - Best Thing Chords & Tabs

 

Best Thing Chords & Tabs

Slunt Chords & Tabs

Version: 1 Type: Tab 0 ratings
1 star 2 stars 3 stars 4 stars 5 stars
comments

Best Thing Tab

This is a newish band not many tabs on the net for these guys from new york, usa www.slunt.net
Sorry Guys no Solo but the tab i fink is close enough!! enjoy 

Intro
e|--------------------------------------------------------------|
b|--------------------------------------------------------------|
g|--------------------------------------------------------------|
d|-----------------------------------------------------5--7-----|
a|-----------------------------------------------------5--7-----|
e|---0--0--3-5-6b-3---0--0--3-5-6b-3---0--0--3-5-6b-3--3--5-----| x4

[ Tab from: http://www.guitartabs.cc/tabs/s/slunt/best_thing_tab.html ]
Verse                                                   PM______
e|---------------------------------------|----------------------|
b|---------------------------------------|----------------------|
g|---------------------------------------|----------------------|
d|---------------------------------------|----------------------|
a|---------------------------------------|----------------------|
e|---0-0-3-5-6b-3-0-------0-0-3-5-6b-3-0-|--0-0-3-5-6b-3-0000000|
                                         |__________________x4__| 

Pre-Chorus
e|------------|
b|------------|
g|------------|
d|---5---7---2|
a|---5---7---2|
e|---3---5---0|

Chorus
e|--------------------------------------------------------------|
b|--------------------------------------------------------------|
g|--------------------------------------------------------------|
d|-----------------------------------------------------5--7-----|
a|-----------------------------------------------------5--7-----|
e|---0--0--3-5-6b-3---0--0--3-5-6b-3---0--0--3-5-6b-3--3--5-----|x2
Comments