Sloan - The Good In Everyone Chords & Tabs

 

The Good In Everyone Chords & Tabs

Sloan Chords & Tabs

Version: 1 Type: Bass Tab 0 ratings
1 star 2 stars 3 stars 4 stars 5 stars
comments

The Good In Everyone Bass Tab

                          The Good In Everyone
                                  Sloan
             Album "One Chord to Another"        Rock On
This is my iterpretation of it, It's pretty close.
E-Mail me at :psmith@marathon.Lakeheadu.ca
Att'n Thomas Smith

         Noisy Stuff                         4x   w           1st Verse    
G---||-------------------------------------||-----||--||--------------------
D---||------------------------------------*||-----||--||*-------------------
A---||------------------------------------*||-----||--||*--------5h6--------
E---||--5--5--3--5--3--5--3--5--5--5---||--5--||--||---7--7-------5-----
                                                                        

    q  q   3x  q  q  q q  q  q  q       q  q  q q  e  q  q   3x  q      
G----------||------------------------||--------------------------||---------
D---------*||-------------7--6--4--||*-----------------------*||---------
A---------*||--------5h6-----------||*--------5h6-----------*||---------
E---5--5---||--7--7----------------||---7--7-------5--5--5---||--7------
                                                                        

    q  q  q      Chorus
G-------------||--||-----------------------------------------------------
D-------------||--||*----------------------------------------------------
A-------------||--||*--6--6--6--6--6-----------------4--4--4--4--4-------
E---7--7--7--||--||-------------------6--6--6--6--6-------------------4----
                                                                        

    q  q  e  q             Verse2   
G-----------------||--||-------------------------------------------|----------
D----------------*||--||*-------------------7--6--4-------------|----------
A----------------*||--||*--------5h6--5--------------7--5--4--|----------
E---4--4--4--4---||--||---7--7----------5-----------------------|--7--7----
                                                                        

       
G---------------------------------------||---------------------------------
D--------------7--6--4-----4--6--7--*||---------------------------------
A---5h6--5--------------5-----------*||--6--6--6--6--6------------------
E-----------5---------------------------||-----------------6--6--6--6------
                                                                        
[ Tab from: http://www.guitartabs.cc/tabs/s/sloan/the_good_in_everyone_btab.html ]
            
G----------------------------------------------------||---------------------|-----
D-----------------------6--4------------------------||*--------------------|-----
A------4--4--4--4--4--------6--4--6-4------------||*--6--6--6--6--6--|-----
E---6--------------------------------------6--4-----||---------------------|-----
                                                                        







                                                                           4x              
G--------------------|--------------------|--------------------||--------------
D--------------------|--------------------|-------------------*||--------------
A--------------------|--4--4--4--4--4---|-------------------*||--------------
E---6--6--6--6--6--|--------------------|--4--4--4--4-4---||--------------
                                                                        
Back to Noisy Part and the End.


========================================================================
==                       TABLATURE EXPLANATION                        ==
========================================================================

----------                ----------                ----t---
----5h8--- Hammeron       ----(8)--- Ghost          ----6--- Tap
----------                ---------- Note           --------
----5p8--- Pulloff        ----------                --------

----------                ----------                -----p--
----5/8--- Slide Up       -----x---- Dead           -----7-- Pop
----------                ---------- Note           --s-----
----5\8--- Slide Down     ----------                --5----- Slap 

----------                ||------|| Repeat         --------
----5~~~-- Vibrato        ||*----*||                ---5^--- Bend
----------                ||*----*||                --------
----------                ||------||                --------

----------                ----------                --------
-4:------- Time           ----------                --------
-4:------- Signature      ----------                --------
----------                ----------                --------

Rhythm:
  w = whole note            W = dotted whole
  h = half note             H = dotted half
  q = quarter note          Q = dotted quarter
  e = eighth note           E = dotted eighth
  s = sixteenth note        S = dotted sixteenth
  t = 32nd note             T = dotted 32nd
  x = 64th note             X = dotted 64th
  ^ = triplet

========================================================================
==            Created with a demo version of BUCKET O' TAB            ==
==              tablature creation software for Windows               ==
==                  For more info email gse@his.com                   ==
========================================================================

--Message-Boundary-22878--


Comments