Sloan - Other Man Chords & Tabs

 

Other Man Chords & Tabs

Sloan Chords & Tabs

Version: 2 Type: Tab 0 ratings
1 star 2 stars 3 stars 4 stars 5 stars
comments

Other Man Tab

   
I don't like this band much, but this
is a pretty good song.

Standard tuning:

Intro:
                       (this part is occasionally overdubbed
                        during the verse)
|----------------------4--|----5-----7-------------|
|-------5-----4--5--------|-------------4--5-------|
|----6--------------------|-------------------6----|
|-4--------4--------------|-4-----4----------------|
|-------------------------|------------------------|
|-------------------------|------------------------|
[ Tab from: http://www.guitartabs.cc/tabs/s/sloan/other_man_tab_ver_2.html ]
Verse:
  F#5
|-------------------------|------------------------|
|-------------------------|------------------------|
|-------------------------|------------------------|
|-4--4--4--4--4--4--4--4--|-4--4--4--4--4--4--4--4-|
|-4--4--4--4--4--4--4--4--|-4--4--4--4--4--4--4--4-|
|-2--2--2--2--2--2--2--2--|-2--2--2--2--2--2--2--2-|
P.M.
  E5                        B5
|-------------------------|------------------------|
|-------------------------|------------------------|
|-------------------------|-4--4--4--4--4--4--4--4-|
|-2--2--2--2--2--2--2--2--|-4--4--4--4--4--4--4--4-|
|-2--2--2--2--2--2--2--2--|-2--2--2--2--2--2--2--2-|
|-0--0--0--0--0--0--0--0--|------------------------|
P.M.

Chorus:

  E5
|-------------------------|------------------------|
|-------------------------|------------------------|
|-9--9--9--9--9--9--9--9--|-9--9--9--9--9--9--9--9-|
|-9--9--9--9--9--9--9--9--|-9--9--9--9--9--9--9--9-|
|-7--7--7--7--7--7--7--7--|-7--7--7--7--7--7--7--7-|
|-0--0--0--0--0--0--0--0--|-0--0--0--0--0--0--0--0-|

  F#m
|-2--2--2--2--2--2--2--2--|-2--2--2--2--2--2--2--2-|
|-2--2--2--2--2--2--2--2--|-2--2--2--2--2--2--2--2-|
|-2--2--2--2--2--2--2--2--|-2--2--2--2--2--2--2--2-|
|-4--4--4--4--4--4--4--4--|-4--4--4--4--4--4--4--4-|
|-4--4--4--4--4--4--4--4--|-4--4--4--4--4--4--4--4-|
|-2--2--2--2--2--2--2--2--|-2--2--2--2--2--2--2--2-|
Comments