Sloan - Other Man Chords & Tabs

 

Other Man Chords & Tabs

Sloan Chords & Tabs

Version: 1 Type: Tab 0 ratings
1 star 2 stars 3 stars 4 stars 5 stars
comments

Other Man Tab

   
Intro:
Guitar 1
|-----------------|---4---5---7-----|-----------------|
|------5-----7----|-----------------|-----4--5--------|
|----6-----6------|-----4---4-------|------------6----|
|--4-----4--------|-----------------|-----------------| x7
|-----------------|-----------------|-----------------|
|-----------------|-----------------|-----------------|

Intro:
Guitar 2
The 3rd time guitar 1 plays intro, guitar 2 comes in with this:
|-----------------|-----------------|-----------------|-----------------|
|-----------------|-----------------|-----------------|-----------------|
|-----------------|-----------------|-4-4-4-4-4-4-4-4-|-2-2-2-2-2-2-2-2-|
|-4-4-4-4-4-4-4-4-|-7-7-7-7-7-7-7-7-|-4-4-4-4-4-4-4-4-|-2-2-2-2-2-2-2-2-| Play this a whole
|-4-4-4-4-4-4-4-4-|-7-7-7-7-7-7-7-7-|-2-2-2-2-2-2-2-2-|-0-0-0-0-0-0-0-0-| bunch till the chorus
|-2-2-2-2-2-2-2-2-|-5-5-5-5-5-5-5-5-|-----------------|-----------------| You can fill this for the bass if you don't have one.

Chorus:

F#                A                 B                 A  
[ Tab from: http://www.guitartabs.cc/tabs/s/sloan/other_man_tab.html ]
|-----------------|-----------------|-----------------|-----------------|
|-----------------|-----------------|-----------------|-----------------|
|-----------------|-----------------|-7-7-7-7-7-7-7-7-|-4-4-4-4-4-4-4-4-|
|-4-4-4-4-4-4-4-4-|-7-7-7-7-7-7-7-7-|-7-7-7-7-7-7-7-7-|-4-4-4-4-4-4-4-4-|  x2
|-4-4-4-4-4-4-4-4-|-7-7-7-7-7-7-7-7-|-5-5-5-5-5-5-5-5-|-2-2-2-2-2-2-2-2-|
|-2-2-2-2-2-2-2-2-|-5-5-5-5-5-5-5-5-|-5-5-5-5-5-5-5-5-|-----------------|

After the chorus, there's a little riff that's hard to hear, so I'm not 
sure if this is right.

Guitar 1
|-----------------|
|------7-----7----|
|----9-----9------|
|--7-----7--------|
|-----------------|
|-----------------|

Theres a whole part here where there's only bass guitar.

|-----------------|-----------------|-----------------|-----------------|
|-----------------|-----------------|-----------------|-----------------|
|-----------------|-----------------|-4-4-4-4-4-4-4-4-|-2-2-2-2-2-2-2-2-|
|-4-4-4-4-4-4-4-4-|-7-7-7-7-7-7-7-7-|-4-4-4-4-4-4-4-4-|-2-2-2-2-2-2-2-2-| 
|-4-4-4-4-4-4-4-4-|-7-7-7-7-7-7-7-7-|-2-2-2-2-2-2-2-2-|-0-0-0-0-0-0-0-0-| 
|-2-2-2-2-2-2-2-2-|-5-5-5-5-5-5-5-5-|-----------------|-----------------| 

Add parts of the intro here & there, and then you've got the whole song!

~Ryan




Comments