Sloan - Money City Maniacs Chords & Tabs

 

Money City Maniacs Chords & Tabs

Sloan Chords & Tabs

Version: 2 Type: Tab 0 ratings
1 star 2 stars 3 stars 4 stars 5 stars
comments

Money City Maniacs Tab

#----------------------------------PLEASE NOTE--------------------------------#
#This file is the author's own work and represents their interpretation of the#
#song. You may only use this file for private study, scholarship, or research.#
#-----------------------------------------------------------------------------#
#-- File created with Instab - http://www.pconline.com/~smcarey/instab.html --#
#-----------------------------------------------------------------------------#

Author/Artist: Sloan
Title: Money City Maniacs
Transcribed by: Brandon Glowienka
Email: b_r_a_n_d_o_n@hotmail.com

heres it all cept for the solo. you guys needed this in tab for those who cant read chords.

-------------------------|----------------------------------------------------
-------------------------|----------------------------------------------------
-------------------------|----------------------------------------------------
-------7-9-9------7------|------7-9-9------7----------------------------------
---9-9-5-7-7--9-9-5-7-7--|--9-9-5-7-7--9-9-5-7-7-----9--------9---------------
---7-7--------7-7---5-5--|--7-7--------7-7---5-5-----7--------7---------------
 intro      (siren in background)                                end.         

------------------------------------------------------------------------------
------------------------------------------------------------------------------
------------------------------------------------------------------------------
-----7---9-9-9-9--------------------------------------------------------------
---9-5-7-7-7-7-7--------------------------------------------------------------
---7---5----------------------------------------------------------------------
 main riff.   repeat throughout song                                          
[ Tab from: http://www.guitartabs.cc/tabs/s/sloan/money_city_maniacs_tab_ver_2.html ]
------------------------------------------------------------------------------
------------------------------------------------------------------------------
---999-----777----------7-----------------------------------------------------
---777-99--777-77--55-1-7-----------------------------------------------------
---777-77--555-77--55-1-5-----------------------------------------------------
-------77------55--33-3-------------------------------------------------------
  chorus X2                                                                   

----------------------|-------------------------------------------------------
----------------------|-------------------------------------------------------
-------7-x-9--7-9-7---|------7-x-9--7-9-7-------------------------------------
---9-x-7-x-9--7-9-7---|--7-x-7-x-9--7-9-7-------------------------------------
---9-x-5-x-7--5-7-5---|--7-x-5-x-7--5-7-5-------------------------------------
---7-x----------------|--5-x--------------------------------------------------
    interlude                                                                 

----------------------|-------------------------------------------------------
----------------------|-------------------------------------------------------
-------7-x-9----9-----|------7-x-9--7-9-7-------------------------------------
---9-x-7-x-9--9-9-9---|--7-x-7-x-9--7-9-7-------------------------------------
---9-x-5-x-7--9-7-9---|--7-x-5-x-7--5-7-5-------------------------------------
---7-x--------7---7---|--5-x--------------------------------------------------
    then after comes the solo. but i cant do it. then the chorus is playedX4  

------------------------------------------------------------------------------
------------------------------------------------------------------------------
------------------------------------------------------------------------------
------------------------------------------------------------------------------
------------------------------------------------------------------------------
------------------------------------------------------------------------------
             listen to the song and how it goes. and find out how many times  

------------------------------------------------------------------------------
------------------------------------------------------------------------------
------------------------------------------------------------------------------
------------------------------------------------------------------------------
------------------------------------------------------------------------------
------------------------------------------------------------------------------
 the main riff is repeated. HAVE FUN!
Comments