Sloan - Money City Maniacs Chords & Tabs

 

Money City Maniacs Chords & Tabs

Sloan Chords & Tabs

Version: 2 Type: Bass Tab 0 ratings
1 star 2 stars 3 stars 4 stars 5 stars
comments

Money City Maniacs Bass Tab

   
ARTIST: SLOAN
SONG: MONEY CITY MANIACS
TABLATURE BY: BRAM GIELEN

hey. i'm not sure of some of the more complicated bass fills on this one, so i put in what i 
thought the general idea was.

INTRO:

G------------------------------------------   	(repeat as many times as necessary before main
D------------------------------------------	riff begins)
A-2-2-2-2-2-2-2-2-2-2-2-2-2-2-2-2-2-2-2-2-2
E------------------------------------------


VERSE RIFF:

G----------------	
D---0-----2------
A-2---0----------
E-----------0-0--


CHORUS:
("and the joke is, when he awoke his body was covered in coke fizz")
[ Tab from: http://www.guitartabs.cc/tabs/s/sloan/money_city_maniacs_btab_ver_2.html ]
G--------------------0---0---7--------
D-2---2----0-0-0-0---------0---0-2----
A-------2----------0------------------
E---0------------------3------------0-


GUITAR SOLO:

G-------------------------------------------------
D-------------------------------------------------
A-2-2-2-2---------2-2-2-2----------2--2--2--2-----
E---------0-0-0-0---------0-0-0-0-----------------


QUIETER PART BEFORE CHORUS (when they sing the "hey you" thing for the second time)

G--------------------------------4--2-----2-------
D--------------------------------------4-----4--2-
A-2---2---2---2---2---2---2---2-------------------
E-------------------------------------------------

CHORUS

and that's it. email me at: ovenbakedgoods@hotmail.com , or check out my band's web page at
http://moshbunker.cjb.net
Comments