Sloan - If It Feels Good Do It Chords & Tabs

 

If It Feels Good Do It Chords & Tabs

Sloan Chords & Tabs

Version: 4 Type: Tab 0 ratings
1 star 2 stars 3 stars 4 stars 5 stars
comments

If It Feels Good Do It Tab

   
hey mufus! it's duby che again(i did trrown away super good version by p roach)
this is the intro to "if it feels good do it" by sloan. i heard it on
much music one day and happened to have my acoustic, and it's power
and flat cords. all right already, here's your f*ckin tab!
e---------------------   
b---------------------   first solo part
g---------------------
d---------------------
a-55-3-55-3-55-3------
d----------------55-3-

e---------------------
b---------------------   harder part goes to these power chords/flats
g-77-5-77-5-77-5------
d-77-5-77-5-77-5-55-3-
a-55-3-55-3-55-3-55-3-
d----------------55-3-

sorry, but that's it! i'll try downloading it to finish it for ya'll!
                                                           -duby che
[ Tab from: http://www.guitartabs.cc/tabs/s/sloan/if_it_feels_good_do_it_tab_ver_4.html ]
Comments