Sloan - If It Feels Good Do It Chords & Tabs

 

If It Feels Good Do It Chords & Tabs

Sloan Chords & Tabs

Version: 3 Type: Tab 0 ratings
1 star 2 stars 3 stars 4 stars 5 stars
comments

If It Feels Good Do It Tab

Sloan
If It Feels Good Do It

I’m not sure of the very start with the drums but this is 
pretty much the rest of it.

Intro
---------------------------------------------
-6--6--4---6---6---4--6--6--4----------------
-6--6--4---6---6---4--6--6--4--4--2---------
-4--4--2---4---4---2--4--4--2--4--2----------
-------------------------------2--0----------
[ Tab from: http://www.guitartabs.cc/tabs/s/sloan/if_it_feels_good_do_it_tab_ver_3.html ]
Chorus and Verse
-------------------------------------------------------------------
-------------------------------------------------------------------
-6-6-6-6-6-6-6-6-6-6-6-------------4-4-4-4-4-4-4-4-4-4-4-----------
-6-6-6-6-6-6-6-6-6-6-6--2--2--2---4-4-4-4-4-4-4-4-4-4-4-----4--2---
-4-4-4-4-4-4-4-4-4-4-4--2--2--2---2-2-2-2-2-2-2-2-2-2-2-----4--2---
------------------------0--0--0-----------------------------2--0---

For pre-chorus just play the above once each.  That the 
part that goes “saw it all in a candyland.”


If anyone one could email me for the very beginning that 
would be great.  beerboy56@hotmail.com
Comments