Sloan - If It Feels Good Do It Chords & Tabs

 

If It Feels Good Do It Chords & Tabs

Sloan Chords & Tabs

Version: 1 Type: Bass Tab 0 ratings
1 star 2 stars 3 stars 4 stars 5 stars
comments

If It Feels Good Do It Bass Tab

Title: Sloan
Song: If It Feels Good Do It
Album: Pretty Together
Author: Neuman Mannas (sir_psycho66@hotmail.com)
		
After the part where he says "...for people who know what rock and roll is about"

G----------------------------------------------------------------
D----------------------------------------------------------------
A----------------------------------------------------------------
E----4-----------------------------------------------------------
     (Hold it for 4 bars)

This is the main guitar riff to play at the beginning.

G----------------------------------------------------------------
D----------------------------------------------------------------
A----4----4----2----4--------4----2----4--4--4---------------
E------------------------------------------------------2----0----

For the rest of the time in the main riff play this.
[ Tab from: http://www.guitartabs.cc/tabs/s/sloan/if_it_feels_good_do_it_btab.html ]
G----------------------------------------------------------------
D----------------------------------------------------------------
A----4----4----2----4--------4-----------2--3--4-------------
E-------------------------------------4-----------------2----0?
		
Hold each of these for whole notes with a bit of a pick up in the part 
where he sings "saw it all and I can't deny..."

G----------------------------------------------------------------
D----------------------------------------------------------------
A----4----------2----------4----------2------------------------
E----------0----------2----------0----------2------------------	

Chorus and all the verses.

G-----------------------------------------------------------------------------------
D-----------------------------------------------------------------------------------
A4-4-4-4-4-4-4----------------------2--2-2-2-2-2-2-2------------------------
E------------------0--0-0-0-0-0-0-0-----------------------2-2-2-2-2-2-2-2---

E-mail me if you have corrections but it think most of that is right so bye.
sir_psycho66@hotmail.com
Comments