Sloan - Everything Youve Done Wrong Chords & Tabs

 

Everything Youve Done Wrong Chords & Tabs

Sloan Chords & Tabs

Version: 2 Type: Tab 0 ratings
1 star 2 stars 3 stars 4 stars 5 stars
comments

Everything Youve Done Wrong Tab

   
Everything You've Done Wrong - Sloan

Tabbed by Adam Bishop

This is actually a revised version of two other versions I found.  

C#m7  - x46454
B     - x24442
Aadd9 - x02420
Em    - 022000
A     - x02220
D     - xx0232
G     - 320033
G/F#  - 2x0033
D7    - xx0212

Intro

C#m7    B    Aadd9 (x2)

Horn riff:
E|------------------------------------
B|-------------9--7----7--4--5--7--5--
G|--6----6--6-------------------------
D|------------------------------------
A|------------------------------------
E|------------------------------------
Over this, an electric guitar plays B notes (3rd string, 4th fret).  

Em             A                  D                 G          G/F#
Do the time to pay the price, for everything you've done wrong baby
Em               A                    D               D7
In your life you get so high, there's nowhere left to go but down
Em                 A                   D                  G       G/F#
Don't believe that no one cares, cause we're here waiting for you baby
Em                A                  D       D7
Do your time, and then come home for good

(With horn riff)
         C#m7           B           Aadd9
So don't hide yourself away, let it shine, let it shine
      C#m7           B           Aadd9
Don't hide yourself away, let it shine, let it shine

Solo 1 (over verse chords)
E|------------------------------------------------------------------------------
B|------------------------------------------------------------------------------
G|--12-12--11---9----9--------11--11---9--7-7--7p6h7p6----12-12--11---9------9--
D|--12-12--12--11-------11----12--12--11--9-9-------------12-12--12--11--11-----
A|------------------------------------------------------------------------------
E|------------------------------------------------------------------------------

E|------------------------------------
B|------------------------------7-----
G|------9-------11----11------5---5/--
D|--11-------12----12-------7---------
A|------------------------------------
E|------------------------------------
[ Tab from: http://www.guitartabs.cc/tabs/s/sloan/everything_youve_done_wrong_tab_ver_2.html ]
If you ever feel in doubt, you have a place in my heart baby
If I ever feel left out, I know I've got a place in yours
Don't believ that I wouldn't dare, to go and take you right back baby
Do your time, and then come home for good

So don't hide yourself away, let it shine, let it shine
Don't hide yourself away, let it shine, let it shine
Dont' hide yourself away, let it shine, let it shine
Don't hide yourself away

Solo 2 (over verse chords):
E|----------------------------------------------------------------------------
B|----------------------------------------------------------------------------
G|------0-----2-----4--7-6----6----------2-----4-----6--9-7----7--6--------0--
D|--0h2---2h4---4h5---------7---7----2h4---4h5---5h7---------9---------0h2----
A|----------------------------------------------------------------------------
E|----------------------------------------------------------------------------

E|----------------------------------------------------5--
B|--------------------------------------------------7----
G|------2-----4--7-6----6---------11----11--------5------
D|--2h4---4h5---------7---7----12----12----(12)/7--------
A|-------------------------------------------------------
E|-------------------------------------------------------

Horn solo (over verse chords):
E|--12p10------10--------10--------10--12--10--------------------10------10--
B|---------12------12----------12--------------12--10--8--8-7--------10------
G|---------------------------------------------------------------------------
D|---------------------------------------------------------------------------
A|---------------------------------------------------------------------------
E|---------------------------------------------------------------------------

E|------12----14--17--17--
B|--12--------------------
G|------------------------
D|------------------------
A|------------------------
E|------------------------

Do your time to pay the price, for everything you've done wrong baby
In your life you get so high, there's nowhere left to go but down
Don't believe that no one cares, cause we're here waiting for you baby
Em               A                  D       G 
Do your time and then come home for good
Em               A                  D       D7
Do your time and then come home for good
Em               A(stop)            D
Do your time and then come home for good
Comments