Slo Burn - Pilot The Dune Chords & Tabs

 

Pilot The Dune Chords & Tabs

Slo Burn Chords & Tabs

Version: 2 Type: Tab 0 ratings
1 star 2 stars 3 stars 4 stars 5 stars
comments

Pilot The Dune Tab

Pilot the Dune

by Slo Burn
from the `97 EP 'amusing the amazing'

transcribed by Christian Reindel (creindel@gmx.de)
any questions or corrections- e-mail me

Slo burn rocks, Kyuss kills, QOSTA sucks, it's pop crap.
John, please go back to the desert and write new songs. I die for that.

TUNE DOWN ONE WHOLE STEP: Dropped C tuning

Intro
D:|--------------------------------------------|
A:|--------------------------------------------|
F:|--------------------------------------------|
C:|--------------------------------------------|
G:|--0-0-0--0------------8-8-8--8--------------|
C:|--0-0-0--0------------8-8-8--8--------------|
[ Tab from: http://www.guitartabs.cc/tabs/s/slo_burn/pilot_the_dune_tab_ver_2.html ]
Mainriff - keep on rocking, find the rhythm, it's so cool....
D:|--------------------------------------------------------------|
A:|--------------------------------------------------------------|
F:|--------------------------------------------------------------|
C:|-7-7--7-7-7---7-7--7-7---7-7-7--------------------------------|
G:|-5-5--5-5-5---5-5--5-5---5-5-5---8-8--8-8-8--5-5--5--5-5-5----|
C:|---------------------------------8-8--8-8-8--5-5--5--5-5-5----|

Riff 2 - play with wah wah and space sound...
D:|--------------------------------------------------------------|
A:|--------------------------------------------------------------|
F:|--------------------------------------------------------------|
C:|--------------------------------------------------------------|
G:|--------------------------------------------------------------|
C:|--0--(0)---5--6~~~~-12/---0--(0)--8~~-7-8-7---5-7-5-----------|

Riff 2a - play after space part  
D:|--------------------------------------------------------------|
A:|--------------------------------------------------------------|
F:|--------------------------------------------------------------|
C:|------------------------3p0-----------------------------------|
G:|--------------------3-5---------------------------------------|
C:|--0--(0)---5--6~~~~------------0--(0)--8~~-7-8-7---5-7-5------|

end.
Comments