Slo Burn - July Chords & Tabs

 

July Chords & Tabs

Slo Burn Chords & Tabs

Version: 2 Type: Tab 0 ratings
1 star 2 stars 3 stars 4 stars 5 stars
comments

July Tab

July

by Slo Burn
from the `97 EP 'amusing the amazing'

transcribed by Christian Reindel (creindel@gmx.de)
any questions or corrections- e-mail me

Slo burn rocks, Kyuss kills, QOSTA sucks,it's pop crap.
John, please go back to the desert and write new songs. I die for that.

TUNE DOWN ONE WHOLE STEP: Dropped C tuning

<0> artifical harmonics 
[ Tab from: http://www.guitartabs.cc/tabs/s/slo_burn/july_tab_ver_2.html ]
Intro
D:|--------------------------------------------------------------|
A:|--------------------------------------------------------------|
F:|--------------------------------------------------------------|
C:|--------------------------------------------------------------|
G:|--------------------------------------------------------------|
C:|-0-0---0--0-0---0--0-0---0--0-0---<0>--<0>-<0>---<0>--<0>-<0>-|
                                      ah   ah  ah   ah    ah  ah
mainriff
D:|------------------------------------------------------------------|
A:|------------------------------------------------------------------|
F:|------------------------------------------------------------------|
C:|------------------------------------------------------------------|
G:|-0-0-0-0-0-0-0-0-0-0-0-0-0-0-0-0-4-4-4-4-4-4-4-4-4-4-4-4-4-5-5-5--|
C:|-0-0-0-0-0-0-0-0-0-0-0-0-0-0-0-0-4-4-4-4-4-4-4-4-4-4-4-4-4-5-5-5--|

Chorus - July.....
D:|--------------------------------------------------------------|
A:|--------------------------------------------------------------|
F:|--------------------------------------------------------------|
C:|--------------------------------------------------------------|
G:|----0--(0)------4-4-4-4-4-4-4-4-3-3-3-3-3-3-3-3---------------|
C:|----0--(0)------4-4-4-4-4-4-4-4-3-3-3-3-3-3-3-3---------------|

That's all the riffs in the song. Put it together !!!
Comments