Slipknot - Wate And Bleed Chords & Tabs

 

Wate And Bleed Chords & Tabs

Slipknot Chords & Tabs

Version: 1 Type: Tab 0 ratings
1 star 2 stars 3 stars 4 stars 5 stars
comments

Wate And Bleed Tab

   
           Guitar tuned in Drop-B-(B,F#,B,E,C#,G#)


     pO=pull off
     H=Hammer on
     Slide Down=\
     Slide Up=/

              Mick(7)Guitar#1 Jim(4)Guitar#2
              
                        
              Intro:Guitar#1 Mick
              G#--------X---X--XX--X--------------|
              C#--------X---X--XX--X--------------|
              E---------X---X--XX--X--------------|
              B---------X---7--1/--8--------------|X10
              F#--------0---7--1/--8--------------|
              B--------0-0--7--1/--8--------------|

              Intro:Guitar#2 Jim
              G#------------X--XX--X--------------|
              G#------------X--XX--X--------------|
              E-------------X--XX--X--------------|
              B-------------3--1/--4--------------|X10
              F#--------0---3--1/--4--------------|
              B--------0-0--3--1/--4--------------|

                            Guitar#1 Mick
              G#------X--X-----X--X------|-------|--X--X--|
              C#------X--X-----X--X------|-------|--X--X--|
              E-------X--X-----X--X------|-------|--X--X--|
              B-------4--X-----1--X--x2--|-------|--1--3--|
              F#------4--5pO\--1--2------|--1pO--|--1--3--|
              B----------5pO\-----2------|--1pO--|--1--3--|

                            Guitar#2 Jim
              G#------X--X-----X--X------|-------|--X--X--|
              C#------X--X-----X--X------|-------|--X--X--|
              E-------X--X-----X--X------|-------|--X--X--|
              B-------4--X-----1--x--x2--|-------|--1--3--|
              F#------4--5pO\--1--2------|--1pO--|--1--3--|
              B----------5pO\-----2------|--1pO--|--1--3--|
[ Tab from: http://www.guitartabs.cc/tabs/s/slipknot/wate_and_bleed_tab.html ]
                            Guitar#1 Mick
              G#-----X--X----X--X----X--X----X--X----X--X-|
              C#-----X--X----X--X----X--X----X--X----X--X-|
              E------X--X----X--X----X--X----X--X----X--X-|
              B------1--2pO--1--2pO--1--2pO--1--2pO--1--3-|
              F#-----1--2pO--1--2pO--1--2pO--1--2pO--1--3-|
              B---------2pO-----2pO-----2pO-----2pO--1----|

                            Guitar#2 Jim
              G#-----X--X----X--X----X--X----X--X----X--X-|
              C#-----X--X----X--X----X--X----X--X----X--X-|
              E------X--X----X--X----X--X----X--X----X--X-|
              B------1--2pO--1--2pO--1--2pO--1--2pO--1--3-|
              F#-----1--2pO--1--2pO--1--2pO--1--2pO--1--3-|
              B---------2pO-----2pO-----2pO-----2pO--1----|

               Bridge:Guitar#1 Mick
              G#-------------------------|
              C#-------------------------|
              E--------------------------|
              B----------------------x8--|
              F#--------\12--15--14------|
              B------3\------------------|

               Bridge:Guitar#2 Jim
              G#-----X---X---------------|
              C#-----X---X---------------|
              E------X---X---------------|
              B------1\--7pO-------------|
              F#-----1\--7pO-------------|
              B------1\--7pO-------------|

               Outro:Guitar#1 Mick
              G#-----X--X-----X--X------|-------|--X--X--|
              C#-----X--X-----X--X------|-------|--X--X--|
              E------X--X-----X--X------|-------|--X--X--|
              B------4--X-----1--X--x2--|-------|--1--3--|
              F#-----4--5pO\--1--2------|--1pO--|--1--3--|
              B---------5pO\-----2------|--1pO--|--1--3--|

               Outro:Guitar#2 Jim
              G#-----X--X-----X--X------|-------|--X--X--|
              C#-----X--X-----X--X------|-------|--X--X--|
              E------X--X-----X--X------|-------|--X--X--|
              B------4--X-----1--X--x2--|-------|--1--3--|
              F#-----4--5pO\--1--2------|--1pO--|--1--3--|
              B---------5pO\-----2------|--1pO--|--1--3--|
Comments