Slipknot - Wait And Bleed Chords & Tabs

 

Wait And Bleed Chords & Tabs

Slipknot Chords & Tabs

Version: 7 Type: Tab 1 rating
1 star 2 stars 3 stars 4 stars 5 stars
comments

Wait And Bleed Tab

wait and bleed

slipknot

This is the real tab i have met james and stat down with him and he
told me he just said to fuigure out the effects level myself cool 
guy thought and a sick guitar player


 B F B E G C or just use normal tuning it sounds the same
PM - Palm Mute

Intro/Chorus
~~~~~~~~~~~~
|-------------------------|
|-------------------------|
|-------------------------| guitar 1  mick
|---------------------1---|
|------0----------1-----1-|
|--0-------0--1-----------|
|			  |
|-------------------------|
|-------------------------|
|-------------------------| guitar 2 (only in chorus) james
|--7----------8-----------|
|-------------------------|
|-------------------------|
[ Tab from: http://www.guitartabs.cc/tabs/s/slipknot/wait_and_bleed_tab_ver_7.html ]
Verse
~~~~~
|----------------|---------------|
|----------------|---------------|
|----------------|---------------|
|----------------|---------------|
|--0-0--0-0------|-0-0--0-0--4-1-|
|--0-0--0-0-7/12-|-0-0--0-0--4-1-|
PM                           - -

Bridge use a delay phaser on the first part of bridge it sounds right
~~~~~~
|---------------|-------------|
|---------------|-------------|
|---------------|-------------|
|------7--------|-----2-------|
|--5h6-------5~-|-0h1-0-------|
|--------0-0----|-0h1---0-0-0-|
PM       - -            - -

Outro
~~~~~  they use a heavy distrosion effect for this
|---------------|
|---------------|
|---------------|
|---------------|
|-0-0--0-0-1-4-1-|
|-0-0--0-0-1-4-1-|




Comments