Slipknot - Wait And Bleed Chords & Tabs

 

Wait And Bleed Chords & Tabs

Slipknot Chords & Tabs

Version: 6 Type: Tab 0 ratings
1 star 2 stars 3 stars 4 stars 5 stars
comments

Wait And Bleed Tab

TUNING: down one and a half steps and then drop d (B-F#-B-E-G#-C#)


     CHORUS/INTRO: (guitar 1)
 
   C#|---------------------------------------------------|
   G#|---------------------------------------------------|
    E|---------------------------------------------------|
    B|-----0-----7-----7-----1-----1-----/8-----8-----0--|
   F#|-----------------------------------/8--------------|
    B|--0-----0-----7-----7-----1-----1------8-----8-----|

     CHORUS/INTRO: (guitar 2)

   C#|------------------------------------|
   G#|------------------------------------|
    E|--14--14-14-14--14--14--14--14--14--| add in bends when
    B|------------------------------------| necessary
   F#|--12--12-12-12--12--12--12--12--12--|
    B|------------------------------------|

     FILL: (before first verse)

   C#|------------------------|
   G#|------------------------|
    E|------------------------|
    B|--0h1p0--0h1p0----------|
   F#|--0h1p0--0h1p0-------5--|
    B|--0h1p0--0h1p0--0/6-----|

     VERSE:

   C#|-------------------------|
   G#|-------------------------|
    E|-------------------------|
    B|--0h1p0--0h1p0--1--4--1--|
   F#|--0h1p0--0h1p0--1--4--1--|
    B|--0h1p0--0h1p0--1--4--1--|
                      pm.....   

     BREAKDOWN: (1:34)
[ Tab from: http://www.guitartabs.cc/tabs/s/slipknot/wait_and_bleed_tab_ver_6.html ]
   C#|--------------------------------|
   G#|--------------------------------|
    E|--------------------------------|
    B|--------------------------------|
   F#|-----------12-------------------|
    B|--0h13h15------0--13--12----12--|

     BRIDGE: (1:39)

   C#|---------------------|
   G#|---------------------|
    E|---------------------|
    B|--0h1h3--2--0--1--0--|
   F#|--0h1h3--0--0--1--0--|
    B|--0h1h3-----0--1--0--|

     LAST CHORUS: (1:54)

   C#|--------------------------------------------------|
   G#|--------------------------------------------------|
    E|--------------------------------------------------|
    B|--0--0--0--7--7--7--7--1--1--1--1--1--1--1--1--1--|
   F#|--0--0--0--7--7--7--7--1--1--1--1--1--1--1--1--1--|
    B|--0--0--0--7--7--7--7--1--1--1--1--1--1--1--1--1--|

     OUTRO: (2:14)

     Play this twice

   C#|------------------------|
   G#|------------------------|
    E|------------------------|
    B|--0h1p0--0h1p0----------|
   F#|--0h1p0--0h1p0-------5--|
    B|--0h1p0--0h1p0--0/6-----|

     Play this a whole bunch of times

   C#|-------------------------|
   G#|-------------------------|
    E|-------------------------|
    B|--0h1p0--0h1p0--1--4--1--|
   F#|--0h1p0--0h1p0--1--4--1--|
    B|--0h1p0--0h1p0--1--4--1--|
              
     And end on this

   C#|---------|
   G#|---------|
    E|---------|
    B|--0h1p0--|
   F#|--0h1p0--|
    B|--0h1p0--|


check out my site:
http://go.to/mph_crash

OR

join my group, or just check the site out for it
http://devoted.to/klown
Comments