Slipknot - Wait And Bleed Chords & Tabs

 

Wait And Bleed Chords & Tabs

Slipknot Chords & Tabs

Version: 3 Type: Tab 2 ratings
1 star 2 stars 3 stars 4 stars 5 stars
comments

Wait And Bleed Tab

   
Wait and Bleed
By Slipknot


Tuning from low to high: B F B Eb G C
PM - Palm Mute

Intro/Chorus
~~~~~~~~~~~~
|-------------------------|
|-------------------------|
|-------------------------| guitar 1
|---------------------1---|
|------0----------1-----1-|
|--0-------0--1-----------|
|			  |
|-------------------------|
|-------------------------|
|-------------------------| guitar 2 (only in chorus)
|--7----------8-----------|
|-------------------------|
|-------------------------|
[ Tab from: http://www.guitartabs.cc/tabs/s/slipknot/wait_and_bleed_tab_ver_3.html ]
Verse
~~~~~
|----------------|---------------|
|----------------|---------------|
|----------------|---------------|
|----------------|---------------|
|--0-0--0-0------|-0-0--0-0--4-1-|
|--0-0--0-0-7/12-|-0-0--0-0--4-1-|
PM                           - -

Bridge
~~~~~~
|---------------|-------------|
|---------------|-------------|
|---------------|-------------|
|------7--------|-----2-------|
|--5h6-------5~-|-0h1-0-------|
|--------0-0----|-0h1---0-0-0-|
PM       - -            - -

Outro
~~~~~
|---------------|
|---------------|
|---------------|
|---------------|
|-0-0--0-0--4-1-|
|-0-0--0-0--4-1-|

Comments