Slipknot - Wait And Bleed Chords & Tabs

 

Wait And Bleed Chords & Tabs

Slipknot Chords & Tabs

Version: 17 Type: Tab 0 ratings
1 star 2 stars 3 stars 4 stars 5 stars
comments

Wait And Bleed Tab

Song: Wait and Bleed
Artist: Slipknot
Tabbed by Garrett
Tuning: Drop B (tune to drop D, then tune all strings down 1  steps)
I've checked tons of tabs of this song all over the internet, and they're all off by a
little, I spent a long time making this tab perfect, I've studied the song, their
performances on Disasterpieces and on Conan O'brien. I've layed it out all the way
through the song with both guitars and no shortcuts. This tab is perfect, so enjoy and
please rate! THE MAIN CHORUS RIFF IS 100% RIGHT! I know it is very disputed and
nevercorrect on internet tabs, COMPARE THIS RIFF TO MICK PLAYING IT! ITS PERFECT!


Guitar 1: MICK
Guitar 2: JAMES

Chorus 1: (Only Guitar 1) 0:00-0:14    - Play 1x
|-------------------------------------------------------------------|
|-------------------------------------------------------------------|
|----------------------------------3-------------------------3-3----|
|----7--7--1--8--8-7-7--0-2--7//1--3-7--7--1--8--8-7--7---1--3-3----|
|----5--0--1--8----0-5--0-0--7//1--1-5--0--1--8----5--0---1--1-1----|
|----0-----1--8------0-------7//1----0-----1--8----0------1---------|

Chorus 2: (Both Guitars) 0:15-0:24     - Play 1x
Guitar 1:
|-------------------------------------------------------------------|
|-------------------------------------------------------------------|
|----------------------------------3-------------------------3-3----|
|----7--7--1--8--8-7-7--0-2--7//1--3-7--7--1--8--8-7--7---1--3-3----|
|----5--0--1--8----0-5--0-0--7//1--1-5--0--1--8----5--0---1--1-1----|
|----0-----1--8------0-------7//1----0-----1--8----0------1---------|


Guitar 2:
|-------------------------------------------------------------------|
|-------------------------------------------------------------------|
|-14-14-14-15-15-15-14-14-15-15-15-14-14-14-15-15-15-14-14-15-15-15-|
|--x--x--x--x--x--x--x--x--x--x--x--x--x--x--x--x--x--x--x--x--x--x-|
|-12-12-12-13-13-13-12-12-13-13-13-12-12-12-13-13-13-12-12-13-13-13-|
|-------------------------------------------------------------------|

Riff 1: (Both Guitars) 0:25-0:30       -Play 1x
Guitar 1:
|-------------------------------------------------------------------|
|-------------------------------------------------------------------|
|-------------------------------------------------------------------|
|-------------------------------------------------------------------|
|---1--0--1--0----5--1--0--1--0----5--1--0--1--0----5--1--0--1--0---|
|---1--0--1--0--6----1--0--1--0--6----1--0--1--0--6----1--0--1--0---|

Guitar 2:
|-------------------------------------------------------------------|
|-------------------------------------------------------------------|
|-------------------------------------------------------------------|
|-------------------------------------------------------------------|
|---1--0--1--0-------1--0--1--0-------1--0--1--0----5--1--0--1--0---|
|---1--0--1--0-------1--0--1--0-------1--0--1--0--6----1--0--1--0---|

Good Bye!
Riff 2: (Both Guitars) 0:31-0:50         -Play 16x
|-------------------------------------------------------------------|
|-------------------------------------------------------------------|
|-------------------------------------------------------------------|
|-----0-1-0--1-4-1--------------------------------------------------|
|-----0-1-0--1-4-1--------------------------------------------------|
|-----0-1-0--1-4-1--------------------------------------------------|
PM           _ _ _

Chorus 2: (Both Guitars) 0:51-1:01       -Play 2x
Guitar 1:
|-------------------------------------------------------------------|
|-------------------------------------------------------------------|
|----------------------------------3-------------------------3-3----|
|----7--7--1--8--8-7-7--0-2--7//1--3-7--7--1--8--8-7--7---1--3-3----|
|----5--0--1--8----0-5--0-0--7//1--1-5--0--1--8----5--0---1--1-1----|
|----0-----1--8------0-------7//1----0-----1--8----0------1---------|

Guitar 2:
|-------------------------------------------------------------------|
|-------------------------------------------------------------------|
|-14-14-14-15-15-15-14-14-15-15-15-14-14-14-15-15-15-14-14-15-15-15-|
|--x--x--x--x--x--x--x--x--x--x--x--x--x--x--x--x--x--x--x--x--x--x-|
|-12-12-12-13-13-13-12-12-13-13-13-12-12-12-13-13-13-12-12-13-13-13-|
|-------------------------------------------------------------------|

Riff 3: (Both Guitars) 1:02-1:04     -Play 1x
|-------------------------------------------------------------------|
|-------------------------------------------------------------------|
|-------------------------------------------------------------------|
|-------------------------------------------------------------------|
|---1--0---1--0---1--4--1----1--0---1--0---1--4--1--0---------------|
|---1--0---1--0---1--4--1----1--0---1--0---1--4--1--0---------------|
                  _  _  _                  _  _  _

Get out of my head ....
Riff 2: (Both Guitars) 1:05-1:15     -Play 8x
|-------------------------------------------------------------------|
|-------------------------------------------------------------------|
|-------------------------------------------------------------------|
|---0--0-1-4-1------------------------------------------------------|
|---0--0-1-4-1------------------------------------------------------|
|---0--0-1-4-1------------------------------------------------------|
PM       _ _ _                 

Chorus 2: (Both Guitars) 1:16-1:25      - Play 1x
Guitar 1:
|-------------------------------------------------------------------|
|-------------------------------------------------------------------|
|----------------------------------3-------------------------3-3----|
|----7--7--1--8--8-7-7--0-2--7//1--3-7--7--1--8--8-7--7---1--3-3----|
|----5--0--1--8----0-5--0-0--7//1--1-5--0--1--8----5--0---1--1-1----|
|----0-----1--8------0-------7//1----0-----1--8----0------1---------|
[ Tab from: http://www.guitartabs.cc/tabs/s/slipknot/wait_and_bleed_tab_ver_17.html ]
Guitar 2:
|-------------------------------------------------------------------|
|-------------------------------------------------------------------|
|-14-14-14-15-15-15-14-14-15-15-15-14-14-14-15-15-15-14-14-15-15-15-|
|--x--x--x--x--x--x--x--x--x--x--x--x--x--x--x--x--x--x--x--x--x--x-|
|-12-12-12-13-13-13-12-12-13-13-13-12-12-12-13-13-13-12-12-13-13-13-|
|-------------------------------------------------------------------|

Chorus 3: (Both Guitars) 1:26-1:35      - Play 1x  
Guitar 1:                                 
|-------------------------------------------------------------------|
|-------------------------------------------------------------------|
|----------------------------------3-------------------------3-3----|
|----7--7--1--8--8-7-7--0-2--7//1--3-7--7--1--8--8-7--7---1--3-3----|
|----5--0--1--8----0-5--0-0--7//1--1-5--0--1--8----5--0---1--1-1----|
|----0-----1--8------0-------7//1----0-----1--8----0------1---------|

Guitar 2:
|-------------------------------------------------------------------|
|-------------------------------------------------------------------|
|--7-7-7-7-7-8-8-8-8-7-7-7-8-8-8-8-7-7-7-7-7-8-8-8-8-7-7-7-8-8-8-8--|
|--x-x-x-x-x-x-x-x-x-x-x-x-x-x-x-x-x-x-x-x-x-x-x-x-x-x-x-x-x-x-x-x--|
|--5-5-5-5-5-6-6-6-6-5-5-5-6-6-6-6-5-5-5-5-5-6-6-6-6-5-5-5-6-6-6-6--|
|-------------------------------------------------------------------|

Riff 3: (Only Guitar 1) 1:36-1:41     - Play 1x
|-------------------------------------------------------------------|
|-------------------------------------------------------------------|
|-------------------------------------------------------------------|
|-------------------------------------------------------------------|
|---12----------------12----------------12----------------12--------|
|-15---13-12-13-12b-15---13-12-13-12b-15---13-12-13-12b-15----------|
            
Riff 4: (Both Guitars) 1:42-1:46   - Play 1x
|-------------------------------------------------------------------|
|-------2--------2--------2--------2--------------------------------|
|-------2--------2--------2--------2--------------------------------|
|-----3-0--0-0-3-0--0-0-3-0--0-0-3-0--1-0---------------------------|
|-----3----0-0-3----0-0-3----0-0-3----1-0---------------------------|
|-----3----0-0-3----0-0-3----0-0-3----1-0---------------------------|

You haven't learned a thing ...
Riff 5: (Both Guitars) 1:47-1:56   - Play 1x
|-------------------------------------------------------------------|
|-------2--------2--------2--------2---------2--------2-------------|
|-------2--------2--------2--------2---------2--------2-------------|
|-----3-0--0-0-3-0--0-0-3-0--0-0-3-0---0-0-3-0--0-0-3-0-------------|
|-----3----0-0-3----0-0-3----0-0-3-----0-0-3----0-0-3---------------|
|-----3----0-0-3----0-0-3----0-0-3-----0-0-3----0-0-3---------------|

Riff 5: cont.
|-------------------------------------------------------------------|
|--------2--------2-------------------------------------------------|
|--------2--------2-------------------------------------------------|
|--0-0-3-0--0-0-3-0--1-0--------------------------------------------|
|--0-0-3----0-0-3----1-0--------------------------------------------|
|--0-0-3----0-0-3----1-0--------------------------------------------|

Chorus 4: (Both Guitars) 1:47-2:06  - Play 2x
|-------------------------------------------------------------------|
|-------------------------------------------------------------------|
|-------------------------------------------------------------------|
|--0-0-0-0-7-7-7-7/1-1-1-1-1-1-1-1-0-0-0-0-7-7-7-7-1-1-1-1-1-1-1-1--|
|--0-0-0-0-7-7-7-7/1-1-1-1-1-1-1-1-0-0-0-0-7-7-7-7-1-1-1-1-1-1-1-1--|
|--0-0-0-0-7-7-7-7/1-1-1-1-1-1-1-1-0-0-0-0-7-7-7-7-1-1-1-1-1-1-1-1--|

Chorus 5: (Both Guitars) 2:07-2:16   - Play 2x
Guitar 1:
|-------------------------------------------------------------------|
|-------------------------------------------------------------------|
|-------------------------------------------------------------------|
|--0-0-0-0-7-7-7-7/1-1-1-1-1-1-1-1-0-0-0-0-7-7-7-7-1-1-1-1-1-1-1-1--|
|--0-0-0-0-7-7-7-7/1-1-1-1-1-1-1-1-0-0-0-0-7-7-7-7-1-1-1-1-1-1-1-1--|
|--0-0-0-0-7-7-7-7/1-1-1-1-1-1-1-1-0-0-0-0-7-7-7-7-1-1-1-1-1-1-1-1--|

Guitar 2:
|-------------------------------------------------------------------|
|-------------------------------------------------------------------|
|--7--7--7--7--7--8--8--8--8--8--8--7--7--7--7--7--8--8--8--8--8--8-|
|--x--x--x--x--x--x--x--x--x--x--x--x--x--x--x--x--x--x--x--x--x--x-|
|--5--5--5--5--5--6--6--6--6--6--6--5--5--5--5--5--6--6--6--6--6--6-|
|-------------------------------------------------------------------|

Riff 6: (Both Guitars) 2:17-2:19  - Play 1x
Guitar 1:
|-------------------------------------------------------------------|
|-------------------------------------------------------------------|
|-------------------------------------------------------------------|
|-------------------------------------------------------------------|
|---1--0--1--0----5---1--0--1--0------------------------------------|
|---1--0--1--0--6-----1--0--1--0--6/0-------------------------------|

Guitar 2:
|-------------------------------------------------------------------|
|-------------------------------------------------------------------|
|-------------------------------------------------------------------|
|-------------------------------------------------------------------|
|---1--0--1--0--------1--0--1--0------------------------------------|
|---1--0--1--0--------1--0--1--0------------------------------------|


Riff 7: (Both Guitars) 2:20-2:27   - Play 1x
|-------------------------------------------------------------------| 
|-------------------------------------------------------------------| 
|-------------------------------------------------------------------| 
|--0--0-1-4-1-0--0-1-4-1-0--0-1-4-1-0--0-1-4-1-0--0-1-4-1-0---------| 
|--0--0-1-4-1-0--0-1-4-1-0--0-1-4-1-0--0-1-4-1-0--0-1-4-1-0---------| 
|--0--0-1-4-1-0--0-1-4-1-0--0-1-4-1-0--0-1-4-1-0--0-1-4-1-0---------|

Riff 7: cont.
|-------------------------------------------------------------------| 
|-------------------------------------------------------------------| 
|-------------------------------------------------------------------| 
|--0--0-1-4-1-0--0-1-4-1--1-0---------------------------------------| 
|--0--0-1-4-1-0--0-1-4-1--1-0---------------------------------------| 
|--0--0-1-4-1-0--0-1-4-1--1-0---------------------------------------|
And That's It!!!
Comments