Slipknot - Wait And Bleed Chords & Tabs

 

Wait And Bleed Chords & Tabs

Slipknot Chords & Tabs

Version: 14 Type: Tab 0 ratings
1 star 2 stars 3 stars 4 stars 5 stars
comments

Wait And Bleed Tab

   
Song:            Wait and bleed
Band:            Slipknot
Transcribed by:  Kenneth

tuning: (eBG) B F# B 
(with heavy strings (heavy bottom) its sounds ok)
those little strings aren't needed

> slide
~ let fade out
P mute


Intro:

     1st guitar:

------------------------------------------
------------------------------------------
------------------------------------------      REPEAT
---0---7--1--8---7--7---8--8--------------
----0---7--1--8-5-5--7-6-6--8-------------
--0---7--1--8------7------8---------------


     2nd guitar (after 1x the intro)

-------------------------------------------------------------
-------------------------------------------------------------
-------------------------------------------------------------     (Listen to the song)
-14-14-14-14-14-14-14-14 ... -15-15-15-15-15-15-15-15-15-...-
-12-12-12-12-12-12-12-12 ... -13-13-13-13-13-13-13-13-13-...-
-------------------------------------------------------------


First riff:


------------------------------------------
------------------------------------------
------------------------------------------      REPEAT
--0-0---0-1-4-1-1-------------------------
--0-0---0-1-4-1-1-------------------------
--0-0---0-1-4-1-1-------------------------
        p p p p p


(this could sound verrrry messy but I think
that this is the right way to play; but if it's toooo difficult
you can play this riff, which is almost the same, 
but it's much easier for
those with tiny fingers ;-) )

[ Tab from: http://www.guitartabs.cc/tabs/s/slipknot/wait_and_bleed_tab_ver_14.html ]
------------------------------------------
------------------------------------------
------------------------------------------      REPEAT
--0-0---0-1-3-1-1-------------------------
--0-0---0-1-3-1-1-------------------------
--0-0---0-1-3-1-1-------------------------
        p p p p p


Second riff:


-----------------------------------
-----------------------------------
-----------------------------------
-0-0-0-7-7-7-1-1-1-8-8-8-----------
-0-0-0-7-7-7-1-1-1-8-8-8-----------
-0-0-0-7-7-7-1-1-1-8-8-8-----------


Alternate riff for the second riff:

If you play with 3 guitars, this is a nice riif: the first guitar
plays the normal riff, while the second guitar plays this riff:

-------------------------
-------------------------
-------------------------
-7-7-7-7-7-7-8-8-8-8-8-8-
-5-5-5-7-7-7-6-6-6-8-8-8-
-------7-7-7-------8-8-8-

and the 3th guitar plays the first time

--------------------------------------
--------------------------------------
--------------------------------------
-14-14-14-14-14 ...-15-15-15-15-15-15-
-12-12-12-12-12 ...-13-13-13-13-13-13-
--------------------------------------


and the second time he plays

----------------------------
----------------------------
----------------------------
-7-7-7-7-7-7 ... -8-8-8-8-8-
-5-5-5-5-5-5 ... -6-6-6-6-6-
----------------------------


Special riff:


-------------------
-------------------
-------------------
-------------------
----12-------------
-12----12---12^14--


Heavy special riff:

----------------
----------------
----2-----------
-0--2--0--1--0--
-0--0--0--1--0--
-0-----0--1--0--

End:

the end is very much the same as the first riff,
but there is a little different timing...
it won't be a problem for you guys!
and there is NO muting in the end...
there could be some mistakes, but there won't be many,
thrust me

any comments can be send to kennethtoch@hotmail.com
This tab is all personal work and there could be
mistakes in it, so don't kill me...
Comments