Slipknot - Wait And Bleed Chords & Tabs

 

Wait And Bleed Chords & Tabs

Slipknot Chords & Tabs

Version: 13 Type: Tab 0 ratings
1 star 2 stars 3 stars 4 stars 5 stars
comments

Wait And Bleed Tab

   
Drop D Tuning: Down 1 1/2 Steps Low to High (B,F#,B,E,G#,C#)  
/ (These mean Slide)  
these are the right tabs for slipknots wait and bleed i have seen everyone eles and they
sux 
but these are the right ones .Its hard to hear over his voice but its there i took his
voice off and i heard the real way to play
it.
so if u have any problems e-mail elrockero56@aol.com    Intro / 1st, 2nd Chorus 
Gtr. 1 
C#|-----------------------------------------------------------| 
G#|-----------------------------------------------------------| 
E |-----------------------------------------------------------|  
B |----0-----------1------------------------------------------| 
F#|---------7------------/---8-------5-0--------1------8------| 
B |--0---7------1-------/-8------------------1------8-----0---| 
-
Gtr. 2 .....wah..wah.... 
C#|-----------------------------------------------------------| 
G#|-----------------------------------------------------------| 
E |-14-1414-14-14-14-14-14-14-14-14-14-14-14-14-14-14---------|  
B |-----------------------------------------------------------| 
F#|-12-1212-12-12-12-12-12-12-12-12-12-12-12-12-12-12---------| 
B |-----------------------------------------------------------| 
Pre-Verse (Done only once throughout song) 
Gtr. 1&2 
C#|-----------------------------------------------------------| 
G#|-----------------------------------------------------------| 
E |-----------------------------------------------------------|  
B |-0-0---0-0-0-----------0-0---0-0-0-------------------------| 
F#|-0-0---0-0-0-----------0-0---0-0-0-------------------------| 
B |-0-0---0-0-0---0-/5\---0-0---0-0-0-------------------------| x3
Verse 
Gtr. 1&2 P.M.... 
C#|-----------------------------------------------------------| 
G#|-----------------------------------------------------------| 
E |-----------------------------------------------------------|  
B |-0-0---0-0-0--1--4--1-------------------------------------| 
F#|-0-0---0-0-0--1--4--1-------------------------------------| 
B |-0-0---0-0-0--1--4--1-------------------------------------| 
Intelude (Part 1) 
Gtr. 2 
C#|-----------------------------------------------------------| 
G#|-----------------------------------------------------------| 
E |-----------------------------------------------------------|  
B |-----------------------------------------------------------| 
F#|--------12-------------------------------------------------| 
B |-12-/15----13-0-12~----------------------------------------| x4
Interlude (Part 2) 
Gtr. 1 & 2 
C#|-----------------------------------------------------------| 
G#|-----------------------------------------------------------| 
E |-------2--------------------------------------------------|  
B |-0-/3--2--0--1-0-------------------------------------------| 
F#|-0-/3--0--0--1-0-------------------------------------------| 
B |-0-/3-----0--1-0-------------------------------------------|  
Last Chorus 
Gtr. 1 
C#|-----------------------------------------------------------| 
G#|-----------------------------------------------------------| 
E |-----------------------------------------------------------|  
B |-0--0-0--7--7--7--7--1--1--1--1--1--1--1--X--1--1----------| 
F#|-0--0-0--7--7--7--7--1--1--1--1--1--1--1--X--1--1----------| 
B |-0--0-0--7--7--7--7--1--1--1--1--1--1--1--X--1--1----------|  
Gtr. 2 .......... 
C#|-----------------------------------------------------------| 
G#|-----------------------------------------------------------| 
E |-7--7-7--7--7--7--7--7--7--7--7--7--7--7--7--7--7----------|  
B |-----------------------------------------------------------| 
F#|-5--5-5--5--5--5--5--5--5--5--5--5--5--5--5--5--5----------| 
B |-----------------------------------------------------------| 
[ Tab from: http://www.guitartabs.cc/tabs/s/slipknot/wait_and_bleed_tab_ver_13.html ]
Comments