Slipknot - Wait And Bleed Chords & Tabs

 

Wait And Bleed Chords & Tabs

Slipknot Chords & Tabs

Version: 12 Type: Tab 0 ratings
1 star 2 stars 3 stars 4 stars 5 stars
comments

Wait And Bleed Tab

   
slipknot,wait and bleed.
Tabbed by mark kerry,roger.kerry@which.net.
  
slipknot - wait and bleed
Tuning - Drop D tuning, tuned down 1 and a half steps 
Low to high = B F# B E G# C#
Transcribed by Mark Kerry

key
\ = slide down
pm = palm mute
h = hammer on
~ = vibrato
x = mute string

intro a (guitar 1)
|------------------------------------------------------------|
|------------------------------------------------------------|
|------------------------------------------------------------|
|------7-----7-----7-----------------8-----8-----------------|
|----5----------------------------------------5--------------|
|--0------7-----7-----1---1---1-\-8-----8--------------------|
                                                                              

|------------------------------------------------------------|
|------------------------------------------------------------|
|------------------------------------------------------------|
|--7-----7-----7-----7-----10-----10-----5-----5-------------|
|-----5-----------------8------8------3-----3-----3----------|
|-----------7-----7------------------------------------------|
                                                                              
intro b (guitar 2) w/wah pedal
|------------------------------------------------------------|
|------------------------------------------------------------|
|--14-14-14-14-14-14-14-14--15-15-15-15-15-15-15-15----------|
|--xx-xx-xx-xx-xx-xx-xx-xx--xx-xx-xx-xx-xx-xx-xx-xx----------|
|--12-12-12-12-12-12-12-12--13-13-13-13-13-13-13-13----------|
|------------------------------------------------------------|

break (guitar 1&2)                   
|------------------------------------------------------------|
|------------------------------------------------------------|
|------------------------------------------------------------|
|------------------------------------------------------------|
|-----------------------------5------------------------------|
|----0-0-0----0-0-0--1--\--6---------------------------------|
pm   - - -    - - -            
                                                         
verse (guitar 1&2)
|------------------------------------------------------------|
|------------------------------------------------------------|
|------------------------------------------------------------|
|------------------------------------------------------------|
|----0-0-0----0-0-0---1--4--1--------------------------------|
|----0-0-0----0-0-0---1--4--1--------------------------------|
pm   - - -    - - -   -  -  -
[ Tab from: http://www.guitartabs.cc/tabs/s/slipknot/wait_and_bleed_tab_ver_12.html ]
chorus 
play the intro both guitars.
in the live version guitar one plays this:

|------------------------------------------------------------|
|------------------------------------------------------------|
|------------------------------------------------------------|
|------------------------------------------------------------|
|--0000-7777-1111-8888---------------------------------------|
|--0000-7777-1111-8888---------------------------------------|
                                                                              
break 2 (guitar 1)
|------------------------------------------------------------|
|------------------------------------------------------------|
|------------------------------------------------------------|
|------------------------------------------------------------|
|----------------12---------~~~------------------------------|
|----0-h-13-h-15----0-13-12----------------------------------|
pm                  -
                                                                              
guitar 1&2
|------------------------------------------------------------|
|------------------------------------------------------------|
|------------------------------------------------------------|
|----------2-------------------------------------------------|
|--0-h-1-3-0-0-0-0-------------------------------------------|
|--0-h-1-3---0-0-0-------------------------------------------|
pm           - -    

last chorus (guitar 1)
|------------------------------------------------------------|
|------------------------------------------------------------|
|------------------------------------------------------------|
|------------------------------------------------------------|
|--0-0-0-0-7-7-7-7-1-1-1-1-1-1-1-1---------------------------|
|--0-0-0-0-7-7-7-7-1-1-1-1-1-1-1-1---------------------------|

(guitar 2) w/wah pedal
|------------------------------------------------------------|
|---7-7-7-7-7-7-7-7------------------------------------------|
|---x-x-x-x-x-x-x-x------------------------------------------|
|---5-5-5-5-5-5-5-5------------------------------------------|
|------------------------------------------------------------|
|------------------------------------------------------------|
slowly bend

outro (guitar 1&2)
|---------------------|  |-----------------------------------|
|---------------------|  |-----------------------------------|
|---------------------|  |-----------------------------------|
|---------------------|  |-----------------------------------|
|--1-0--1-0--1-4-1----|  |-----1-0---------------------------|
|--1-0--1-0--1-4-1----|  |-----1-0---------------------------|
                                                
:: Ultimate Guitar Archive :: 
http://www.ultimate-guitar.com 



Comments