Slipknot - Wait And Bleed Chords & Tabs

 

Wait And Bleed Chords & Tabs

Slipknot Chords & Tabs

Version: 11 Type: Tab 0 ratings
1 star 2 stars 3 stars 4 stars 5 stars
comments

Wait And Bleed Tab

   
Slipknot, Wait and Bleed.
 Tabbed by Cavan, Powerstruck15@cs.com.
  
Tuning- 1 and a half steps down then drop the D
(B-F#-B-E-G#-C#)

Intro/Chorus
B |-7-7-7--7-7-7-7--1-1-1--8-8-8-8-|
F#|-7-7-7--7-7-7-7--1-1-1--8-8-8-8-|
B |-5-5-5--7-7-7-7--1-1-1--8-8-8-8-|
[ Tab from: http://www.guitartabs.cc/tabs/s/slipknot/wait_and_bleed_tab_ver_11.html ]
(other Guitar)
E |-14-14-14-14-14-14-14-14/15-15-15-15-15-15-15-15-|
B |-X--X--X--X--X--X--X--X--X--X--X--X--X--X--X--X--|
F#|-12-12-12-12-12-12-12-12/13-13-13-13-13-13-13-13-|

Intro-Ending
B |-0-0--0-0------|
F#|-0-0--0-0--6/9-|
B |-0-0--0-0--6/9-|

Verse
B |-0-0--0-0-1-4-1-|
F#|-0-0--0-0-1-4-1-|
B |-0-0--0-0-1-4-1-|

Pre-Bridge ("You haven't learned a thing")
B |----------------|
F#|-10^12/5-5^6^5~-|
B |-10^12/5-5^6^5~-|

Bridge (Slower than verse)
B |-0-0--0-0-1-4-1-|
F#|-0-0--0-0-1-4-1-|
B |-0-0--0-0-1-4-1-| 
:: Ultimate Guitar Archive :: 
http://www.ultimate-guitar.com 

Comments