Slipknot - Wait And Bleed Chords & Tabs

 

Wait And Bleed Chords & Tabs

Slipknot Chords & Tabs

Version: 1 Type: Tab 0 ratings
1 star 2 stars 3 stars 4 stars 5 stars
comments

Wait And Bleed Tab

   
Song: Wait and Bleed
Band: Slipknot 
Tab: josh gidley

Tuning: B F# B E G# C#
   Intro                                  Then(Chorus)
C#|-------------------------------------|----------------------------------
G#|-------------------------------------|----------------------------------
 E|-------------------------------------|-14-14-14-14-14-14-14-15-15-15-15-
 B|---0----7----7-----1----1--/8----8---|----------------------------------
F#|---------------------------/8--------|-12-12-12-12-12-12-12-13-13-13-13-
 B|-0---0----7----7-----1----1----8----8|----------------------------------
[ Tab from: http://www.guitartabs.cc/tabs/s/slipknot/wait_and_bleed_tab.html ]
RIGHT BEFORE VERSE:          Verse:
C#|-----------------------|-------------------
G#|-----------------------|PM___________------
 E|-----------------------|-------------------
 B|-0h1p0-0h1p0-----------|-0h1p0-0h1p0-1-4-1-
F#|-0h1p0-0h1p0----5------|-0h1p0-0h1p0-1-4-1-
 B|-0h1p0-0h1p0-/6--------|-0h1p0-0h1p0-1-4-1-

Bridge: ~ = vibrato
C#|--------------------------|-----------------
G#|--------------------------|-----------------
 E|--------------------------|-----------------
 B|--------------------------|-0h1h3-----0-1-0-
F#|-----------------------12-|-0h1h3--0--0-1-0-
 B|0-13-12~-12-12-0-13h15----|-0h1h3-----0-1-0-

Heavy Chorus:
C#|-------------------------------------------------------------
G#|-------------------------------------------------------------
 E|-------------------------------------------------------------
 B|-------------------------------------------------------------
F#|-0-0-0-0-0-0-7-7-7-7-7-7-7-7-7-1-1-1-1-1-1-1-x1-1-1-1-1-1-1-1
 B|-0-0-0-0-0-0-7-7-7-7-7-7-7-7-7-1-1-1-1-1-1-1-x1-1-1-1-1-1-1-1

any questions e-mail me at jplayer88@hotmail.com
Comments