Slipknot - Vermillion Part 2 Chords & Tabs

 

Vermillion Part 2 Chords & Tabs

Slipknot Chords & Tabs

Version: 1 Type: Tab 0 ratings
1 star 2 stars 3 stars 4 stars 5 stars
comments

Vermillion Part 2 Tab

Slipknot
Vermilion part 2
Volume 3 : (The Subliminal Verses)
 
~ - Hold note
() - Palm mute

This tab only has Mick's parts but if you play it i still sounds like it

Intro / Verse - x6

C#|-----------------------|---------------------------------------|
G#|--02------------------|---------------------------------------|
E |-----------------------|--7--------------(7)-(7)---------(7)---|
B |---------5--4--4-5-4---|--7---------------7---6----------(6)---|
F#|--2~~~~~~~~~~~~~~~~----|--5~~-(5)-(5)-(5)-5---4---4---4---4----|
B |-----------------------|--0~~-(0)-(0)-(0)-0--(0)-(0)-(0)-(0)---|

Chorus

C#|--3---|--3-----3|---6---|--------------------|
G#|--4---|--4-----4|---4---|--------------------|
E |--5---|5-5-5-6-6|---5---|--7~~~~~~--7~~~~~~--|
B |--5---|3-5-5-6-6|---5---|--7~~~~~~--7~~~~~~--|
F#|--3---|3-3-3-3-3|---3---|--5~~~~~~--5~~~~~~--|
B |------|---------|-------|--0~~~~~~--0~~~~~~--|
         {---X3----}

Interlude 

C#|-----5-----------5---6--5-----5-----------5---|
G#|--3-----3--6--3------------3-----3--6--3------|
E |----------------------------------------------|
B |----------------------------------------------|
F#|----------------------------------------------|
B |----------------------------------------------|

C#|--1-(1)(1)(1)(1)(1)------|
G#|--3-(3)-3-(3)(3)(3)--5-6-|
E |--2-(2)(2)(2)(2)(2)------|
B |--0-(0)(0)(0)(0)(0)--2-3-|
F#|---------------------2-3-|
B |---------------------2-3-|

C#|--1-(1)(1)(1)(1)--0-(0)(0)(0)(0)--|
G#|--3-(3)(3)(3)(3)--1-(1)(1)(1)(1)--|
E |--3-(3)(3)(3)(3)--0-(0)(0)(0)(0)--|
B |--3-(3)(3)(3)(3)--2-(2)(2)(2)(2)--|
F#|--1-(1)(1)(1)(1)--3-(3)(3)(3)(3)--|
B |----------------------------------|

C#|---------------------|
G#|--5-5-5-5-5----------|
E |------------7-6-(6)--|
B |--2-2-2-2-2-0-4-(4)--|
F#|--2-2-2-2-2-0-4-(4)--|
B |--2-2-2-2-2-0--------|


C#|------------------------|
G#|------------------------|
E |--7-7-7-7-7--9-9-9-9-9--|
B |--0-0-0-0-0--7-7-7-7-7--|
F#|--0-0-0-0-0--7-7-7-7-7--|
B |--0-0-0-0-0--7-7-7-7-7--|

[ Tab from: http://www.guitartabs.cc/tabs/s/slipknot/vermillion_part_2_tab.html ]
C#|--1-(1)(1)(1)(1)(1)--0-(0)(0)(0)(0)(0)--|
G#|--3-(3)(3)(3)(3)(3)--2-(2)(2)(2)(2)(2)--|
E |--2-(2)(2)(2)(2)(2)--2-(2)(2)(2)(2)(2)--|
B |--0-(0)(0)(0)(0)(0)--2-(2)(2)(2)(2)(2)--|
F#|---------------------0-(0)(0)(0)(0)(0)--|
B |----------------------------------------|

C#|--1-(1)(1)(1)(1)(1)--0-(0)(0)(0)(0)(0)--|
G#|--3-(3)(3)(3)(3)(3)--2-(2)(2)(2)(2)(2)--|
E |--3-(3)(3)(3)(3)(3)--2-(2)(2)(2)(2)(2)--|
B |--3-(3)(3)(3)(3)(3)--2-(2)(2)(2)(2)(2)--|
F#|--1-(1)(1)(1)(1)(1)--0-(0)(0)(0)(0)(0)--|
B |----------------------------------------|

C#|--1-(1)(1)(1)(1)(1)--0-(0)(0)(0)(0)(0)--|
G#|--3-(3)(3)(3)(3)(3)--2-(2)(2)(2)(2)(2)--|
E |--2-(2)(2)(2)(2)(2)--2-(2)(2)(2)(2)(2)--|
B |--0-(0)(0)(0)(0)(0)--2-(2)(2)(2)(2)(2)--|
F#|---------------------0-(0)(0)(0)(0)(0)--|
B |----------------------------------------|

C#|--1-(1)(1)(1)(1)(1)--0-(0)(0)(0)(0)(0)--|
G#|--3-(3)(3)(3)(3)(3)--2-(2)(2)(2)(2)(2)--|
E |--3-(3)(3)(3)(3)(3)--2-(2)(2)(2)(2)(2)--|
B |--3-(3)(3)(3)(3)(3)--2-(2)(2)(2)(2)(2)--|
F#|--1-(1)(1)(1)(1)(1)--0-(0)(0)(0)(0)(0)--|
B |----------------------------------------|

C#|-----5--6--5-----5---6--5-----5--6--5-----5--|
G#|--3-----------3------------3-----------3-----|
E |---------------------------------------------|
B |---------------------------------------------|
F#|---------------------------------------------|
B |---------------------------------------------|

Verse riff- x6

C#|-----------------------|---------------------------------------
G#|--02------------------|---------------------------------------
E |-----------------------|--7--------------(7)-(7)---------(7)---
B |---------5--4--4-5-4---|--7---------------7---6----------(6)---
F#|--2~~~~~~~~~~~~~~~~----|--5~~-(5)-(5)-(5)-5---4---4---4---4----
B |-----------------------|--0~~-(0)-(0)-(0)-0--(0)-(0)-(0)-(0)---

Outro 

C#|----------15--14~~~~~~--|
G#|--12--14----------------|
E |------------------------|
B |------------------------|
F#|------------------------|
B |------------------------|

The strumming is easy to figure out, just listen to the song a few times.
Comments