Slipknot - Vermilion Chords & Tabs

 

Vermilion Chords & Tabs

Slipknot Chords & Tabs

Version: 5 Type: Tab 0 ratings
1 star 2 stars 3 stars 4 stars 5 stars
comments

Vermilion Tab

Slipknot - Vermilion - Vol. 3:The Subliminal Verses

Tabbed by Elvisz(elvisz@kornkids.com)

This song is hard to figure out but i think it sounds real close, if you're
looking for the solo sorry can't help you with that(i'm not to good in that
stuff); Try my tab i think it's worth it! :)
Tuning drop D;
(soory i didn't mark what part you have to repeat how many time, but it's
3 o clock in the midnight.....)
Listen to the song and it comes out real clean and easy...
peace!

Intro:
|--------12~~11~~-|
|-9~~11~~---------|
|-----------------|	(Guitar1)
|-----------------|
|-----------------|
|-----------------|

|------------------------------------|--------------|
|------------------------------------|--------------|
|------------------------------------|-55/77\33333\-|	(Guitar2)
|-6-66-8-88-9-99-8-888888-888-888888-|-xxxxxxxxxxxx-|
|-x-xx-x-xx-x-xx-x-xxxxxx-xxx-xxxxxx-|-22/55\11111\-|
|-6-66-8-88-9-99-8-888888-888-888888-|--------------|
    ..   ..   ..   ......     ......                  .palm mute
 
Fill1:
|------------------------------------|-----------------|
|------------------------------------|-----------------|
|------------------------------------|-55/77/99/111111-|	(Guitar2)
|-6-66-8-88-9-99-8-888888-888-888888-|-xxxxxxxxxxxxxxx-|
|-x-xx-x-xx-x-xx-x-xxxxxx-xxx-xxxxxx-|-22/55/77/ 9 9 9-|
|-6-66-8-88-9-99-8-888888-888-888888-|-----------------|
    ..   ..   ..   ......     ......                   .palm mute

Verse1:
|--------12~~11~~-|
|-9~~11~~---------|
|-----------------|	(Guitar1)
|-----------------|
|-----------------|
|-----------------|

|------------------------------------|--------------|
|------------------------------------|--------------|
|------------------------------------|-55/77\33333\-|	(Guitar2)
|-6-66-8-88-9-99-8-888888-888-888888-|-xxxxxxxxxxxx-|
|-x-xx-x-xx-x-xx-x-xxxxxx-xxx-xxxxxx-|-22/55\11111\-|
|-6-66-8-88-9-99-8-888888-888-888888-|--------------|
    ..   ..   ..   ......     ......                  .palm mute
 
Fill1:
|------------------------------------|-----------------|
|------------------------------------|-----------------|
|------------------------------------|-55/77/99/111111-|	(Guitar2)
|-6-66-8-88-9-99-8-888888-888-888888-|-xxxxxxxxxxxxxxx-|
|-x-xx-x-xx-x-xx-x-xxxxxx-xxx-xxxxxx-|-22/55/77/ 9 9 9-|
|-6-66-8-88-9-99-8-888888-888-888888-|-----------------|
    ..   ..   ..   ......     ......                   .palm mute

Pre-Verse:
|-----------|---|-------------------|
|-----------|---|-------------------|
|-----------|---|-------------------|	(Guitar1)
|-2~~2~6~~6~|0~5|0~0~1~1~0~0~6665~~-|
|-2~~2~6~~6~|0~5|0~0~1~1~0~0~6665~~-|
|-2~~2~6~~6~|0~5|0~0~1~1~0~0~6665~~-|

|-----------|---|-------------------|
|-----------|---|-------------------|
|-----------|---|-------------------|	(Guitar2)
|-2222266666|0~5|0~0~1~1~0~0~6665~~-|
|-xxxxxxxxxx|0~5|0~0~1~1~0~0~6665~~-|
|-2222266666|0~5|0~0~1~1~0~0~6665~~-|

Verse2:
|--------------|
|--------------|
|-77777\33333\-|	(Guitar2)
|-xxxxxxxxxxxx-|
|-55555\11111\-|
|--------------|

Verse3:
|---------------------------------|
|---------------------------------|
|--------------9-9-9-8-8-8--------|	(Guitar1))
|--6-6-6-8-8-8------------6688999-|
|---------------------------------|
|---------------------------------|

|--------------|
|--------------|
|-77777\33333\-|	(Guitar2)
|-xxxxxxxxxxxx-|
|-55555\11111\-|
|--------------|

Fill2:
|--------------|
|--------------|
|-77/99/111111-|	(Guitar2)
|-xxxxxxxxxxxx-|
|-55/77/ 9 9 9-|
|--------------|

Pre-Verse:
|-----------|---|-------------------|
|-----------|---|-------------------|
|-----------|---|-------------------|	(Guitar1)
|-2~~2~6~~6~|0~5|0~0~1~1~0~0~6665~~-|
|-2~~2~6~~6~|0~5|0~0~1~1~0~0~6665~~-|
|-2~~2~6~~6~|0~5|0~0~1~1~0~0~6665~~-|

|-----------|---|-------------------|
|-----------|---|-------------------|
|-----------|---|-------------------|	(Guitar2)
|-2222266666|0~5|0~0~1~1~0~0~6665~~-|
|-xxxxxxxxxx|0~5|0~0~1~1~0~0~6665~~-|
|-2222266666|0~5|0~0~1~1~0~0~6665~~-|
[ Tab from: http://www.guitartabs.cc/tabs/s/slipknot/vermilion_tab_ver_5.html ]
Bridge1:(Guitar1 & Guitar2)
|-------------------------------------|
|-------------------------------------|
|-5\4------5\4------------------------|
|-xxx------xxx------------------------|
|-3\2------3\2------3\2------6\5------|
|-----0000-----0101-3\2-0000-6\5-6666-|
      ....     ....     ....     ....   .palm mute

|-------------------------------------|
|-------------------------------------|
|-5\4------5\4------------------------|
|-xxx------xxx------------------------|
|-3\2------3\2------5/7------5/8------|
|-----0000-----0101-5/7-0000-5/8-6666-|
      ....     ....     ....     ....   .palm mute

Chorus:
(Guitar2)
|---------------------------------------------------------------------------------|
|---------------------------------------------------------------------------------|
|-444444/666666/121212121212\999999\111111111111\777777/11111111111111\999/111111-|
|-xxxxxxxxxxxxxxxxxxxxxxxxxxxxxxxxxxxxxxxxxxxxxxxxxxxxxxxxxxxxxxxxxxxxxxxxxxxxxxx-|
|-222222/444444/101010101010\777777/ 9 9 9 9 9 9\555555/ 9 9 9 9 9 9 9\777/ 9 9 9-|
|---------------------------------------------------------------------------------|

|----------------------|--------|--------|
|----------------------|--------|--------|
|----------------------|--------|--------|	(Guitar1)
|-9~9999-7~9~7~-2~2222-|-5~5555-|-5~4~2~-|
|-9~9999-7~9~7~-2~2222-|-5~5555-|-5~4~2~-|
|-9~9999-7~9~7~-2~2222-|-5~5555-|-5~4~2~-|
                        ^first    ^third
                        & second  & fourth 
                         ending    ending               

Bridge2:
|----------|
|----------|
|-5\4------|	(Guitar1)
|-xxx------|
|-3\2------|
|-----0000-|
      ....   .palm mute

Bridge3:(Guitar2 does the solo, but i'm really bad in these stuff so i'll 
skip it;)
|--------------|---------------|
|--------------|---------------|
|-5\4----------|---------------|	(Guitar1)
|-xxx----------|-2-2222-3-3333-|
|-3\2----------|-2-2222-3-3333-|
|-----00000000-|-2-2222-3-3333-|
      ........                   .palm mute

Bridge4(same as bridge1):(Guitar1 & Guitar2)
|-------------------------------------|
|-------------------------------------|
|-5\4------5\4------------------------|
|-xxx------xxx------------------------|
|-3\2------3\2------3\2------6\5------|
|-----0000-----0101-3\2-0000-6\5-6666-|
      ....     ....     ....     ....   .palm mute

|-------------------------------------|
|-------------------------------------|
|-5\4------5\4------------------------|
|-xxx------xxx------------------------|
|-3\2------3\2------5/7------5/8------|
|-----0000-----0101-5/7-0000-5/8-6666-|
      ....     ....     ....     ....   .palm mute

Chorus:
(Guitar2)
|---------------------------------------------------------------------------------|
|---------------------------------------------------------------------------------|
|-444444/666666/121212121212\999999\111111111111\777777/11111111111111\999/111111-|
|-xxxxxxxxxxxxxxxxxxxxxxxxxxxxxxxxxxxxxxxxxxxxxxxxxxxxxxxxxxxxxxxxxxxxxxxxxxxxxxx-|
|-222222/444444/101010101010\777777/ 9 9 9 9 9 9\555555/ 9 9 9 9 9 9 9\777/ 9 9 9-|
|---------------------------------------------------------------------------------|

|----------------------|--------|--------|
|----------------------|--------|--------|
|----------------------|--------|--------|	(Guitar1)
|-9~9999-7~9~7~-2~2222-|-5~5555-|-5~4~2~-|
|-9~9999-7~9~7~-2~2222-|-5~5555-|-5~4~2~-|
|-9~9999-7~9~7~-2~2222-|-5~5555-|-5~4~2~-|
                        ^first    ^third
                        & second  & fourth 
                         ending    ending       

Outro:
(Guitar2)
|---------------------------------------------------------------------------------|
|---------------------------------------------------------------------------------|
|-444444/666666/121212121212\999999\111111111111\777777/11111111111111\999/111111-|
|-xxxxxxxxxxxxxxxxxxxxxxxxxxxxxxxxxxxxxxxxxxxxxxxxxxxxxxxxxxxxxxxxxxxxxxxxxxxxxxx-|
|-222222/444444/101010101010\777777/ 9 9 9 9 9 9\555555/ 9 9 9 9 9 9 9\777/ 9 9 9-|
|---------------------------------------------------------------------------------|

|----------------------------|
|----------------------------|
|----------------------------|	(Guitar1)
|-9~9999-7~9~7~-2~2222-7\6\4-|
|-xxxxxx-xxxxxx-xxxxxx-xxxxx-|
|-9~9999-7~9~7~-2~2222-5\4\2-|
Comments