Slipknot - Vermilion Chords & Tabs

 

Vermilion Chords & Tabs

Slipknot Chords & Tabs

Version: 4 Type: Tab 0 ratings
1 star 2 stars 3 stars 4 stars 5 stars
comments

Vermilion Tab

   
#----------------------------------PLEASE NOTE---------------------------------#
#This file is the author's own work and represents their interpretation of the #
#song. You may only use this file for private study, scholarship, or research. #
#------------------------------------------------------------------------------##

                                    VERMILION
                             As recorded by Slipknot
              (From the 2004 Album VOL. 3 (THE SUBLIMINAL VERSES))

Words and Music by Slipknot
Transcribed by Travis Lausch

Not too sure about the end of that solo.

Gtr I (B F# B E G# C#) - 'Intro Effects'
Gtr II (B F# B E G# C#) - 'Guitar 1'
Gtr III (B F# B E G# C#) - 'Guitar 2'
Gtr IV (B F# B E G# C#) - 'Harmony/Lead Gtr.'

 Intro
  Q=138
 4/4
  Gtrs II, III
   W                     W
|--------------------|--------------------|
|--------------------|--------------------|
|--------------------|--------------------|
|--------------------|--------------------|
|--------------------|--------------------|
|--------------------|--------------------|
|
| Gtr I
|                                   <
|  ~~~~~~~~~~~~~~~~~~~~~~~~~~~~~~~~~~~~~~~~
|  Q.    E  +Q    Q     +E   Q.    +H
|----------------15--|-(15)-14----(14)----|
|-12----14-(14)------|--------------------|
|--------------------|--------------------|
|--------------------|--------------------|
|--------------------|--------------------|
|--------------------|--------------------|


        PM|      PM-|    PM--|        PM--|
     E  E E  E   E  E  E E     E   E  E E   E  E E E
||-------------------------|-------------------------|
||o------------------------|-------------------------|
||---6-------6---------6---|-------6-----------6-6-6-|
||---4--4-4--6---6--6--5-5-|---5---4--4-4---4--5-4-5-|
||o--2--2-2--4---4--4--5-5-|---5---5--5-5---5--5-5-5-|
||-------------------------|-------------------------|
|
|~~~~~~~~~~~~~~~~~~~~~~~~~~~~~~~~~~~~~~~~~~~~~~
|    Q.      E  +Q     Q      +E   Q.      +H
||--------------------15---|-(15)-14------(14)-------|
||o-12------14-(14)--------|-------------------------|
||-------------------------|-------------------------|
||-------------------------|-------------------------|
||o------------------------|-------------------------|
||-------------------------|-------------------------|


                     1.,2.,3.             4.
    PM----|                                             ~~~~~~
  E E E E E E  E  E    E E E E E E E E  4x  E  E  E  E  Q   Q
|-------------------|-------------------||---------------------|
|-------------------|------------------o||---------------------|
|-6---------6S10-10-|-10-6-6-6-6-6-6-6--||-10-12-12S14-14--14--|
|-7-7-7-7-7-7-----x-|--x-x-x-x-x-x-x-x--||--x--x--x--x--x---x--|
|-5-5-5-5-5-5S=8--8-|--8-4-4-4-4-4-4-4-o||--8-10-10S12-12--12--|
|-------------------|-------------------||---------------------|


   Verse
   4/4
    Gtr II
      PM|   PM|   PM--|   PM--|           PM----|                    ~~~~~
    E E E E E E E E   E E E E E E E E   E E E E E E  E  E    E E E E Q  Q
||------------------|-----------------|-------------------|------------------||
||o-----------------|-----------------|-------------------|-----------------o||
||--6-----6-----6---|---6-------6-6-6-|-6---------6S10-10-|-10-6-6-6-6--6----||
||--4-4-4-6-6-6-5-5-|-5-4-4-4-4-5-4-5-|-7-7-7-7-7-7-----x-|--x-x-x-x-x--x----||
||o-2-2-2-4-4-4-5-5-|-5-5-5-5-5-5-5-5-|-5-5-5-5-5-5S=8--8-|--8-4-4-4-4--4---o||
||------------------|-----------------|-------------------|------------------||
|
|   Gtr III
|                                                                    ~~~~~
|   W                 W                 H       E E  E  E    E E E E Q  Q
||------------------|-----------------|-------------------|------------------||
||o-----------------|-----------------|-------------------|-----------------o||
||------------------|-----------------|-----------6S10-10-|-10-6-6-6-6--6----||
||------------------|-----------------|-----------x-----x-|--x-x-x-x-x--x----||
||o-----------------|-----------------|-----------4S=8--8-|--8-4-4-4-4--4---o||
||------------------|-----------------|-------------------|------------------||


                                                           1.
    Gtrs II, III
      PM|   PM|   PM--|   PM--|           PM----|                    ~~~~~
    E E E E E E E E   E E E E E E E E   E E E E E E  E  E    E E E E Q  Q
||------------------|-----------------|-------------------|------------------||
||o-----------------|-----------------|-------------------|-----------------o||
||--6-----6-----6---|---6-------6-6-6-|-6---------6S10-10-|-10-6-6-6-6--6----||
||--4-4-4-6-6-6-5-5-|-5-4-4-4-4-5-4-5-|-7-7-7-7-7-7-----x-|--x-x-x-x-x--x----||
||o-2-2-2-4-4-4-5-5-|-5-5-5-5-5-5-5-5-|-5-5-5-5-5-5S=8--8-|--8-4-4-4-4--4---o||
||------------------|-----------------|-------------------|------------------||


                        Pre-Chorus
  2.
                      $
                        3/4                                              4/4
               ~~~~~~
   E  E  E  E  Q   Q     Q.   Q  E   Q.   Q  E   Q.   Q  E   Q.    Q.
|---------------------||-----------|-----------|-----------|------------|--
|---------------------||-----------|-----------|-----------|------------|--
|-10S12-12S14-14--14--||-4----4--4-|-4----4--4-|-4----4--4-|-7-----9----|--
|--x--x--x--x--x---x--||-5----5--5-|-5----5--5-|-5----5--5-|-8----10----|--
|--8S10-10S12-12--12--||-3----3--3-|-3----3--3-|-3----3--3-|-6-----8----|--
|---------------------||-----------|-----------|-----------|------------|--


    Q=144
                                                                   To Coda
   4/4
    PM------------------------------------------------------------------|
    E E E E E E E E   E E E E E E E E   E E E E E E E E   E E E E E E E E
||------------------|-----------------|-----------------|-------------------||
||o-----------------|-----------------|-----------------|------------------o||
||------------------|-----------------|-----------------|-------------------||
||------------------|-----------------|-----------------|-------------------||
||o-0-----1-----0---|---6-----5-------|-0-----1-----0---|---6-----5--------o||
||--0-0-0-1-1-1-0-0-|-0-6-6-6-5-5-5-5-|-0-0-0-1-1-1-0-0-|-0-6-6-6-5-5-5-5---||


              Verse
               Gtr II                                        Gtrs II, III
               PM------------------------------------------|
  Wx2          E E E E E E E E   E E E E E E E E   E E E E E   E  E  E
|------------|-----------------|-----------------|---------------------|
|------------|-----------------|-----------------|---------------------|
|------------|-6-6-6-----------|-----------------|-----------/10-10-10-|
|------------|-4-4-4-----------|---------7-7-4-4-|-5-5-5-5-5---x--x--x-|
|------------|-------2-2-2-4-4-|-4-5-5-5---------|------------/8--8--8-|
|------------|-----------------|-----------------|---------------------|


                    Gtr II                                        Gtrs II, III
                    PM------------------------------------------|
   E E E E Q  E E   E E E E E E E E   E E E E E E E E   E E E E E   E  E  E
|-----------------|-----------------|-----------------|---------------------|
|-----------------|-----------------|-----------------|---------------------|
|-10-6-6-6-6--6-6-|-6-6-6-----------|-----------------|-----------/10-10-10-|
|--x-x-x-x-x--x-x-|-4-4-4-----------|---------7-7-4-4-|-5-5-5-5-5---x--x--x-|
|--8-4-4-4-4--4-4-|-------2-2-2-4-4-|-4-5-5-5---------|------------/8--8--8-|
|-----------------|-----------------|-----------------|---------------------|


  Gtr II
                      PM------------------------------------------|
   E E E E Q  E E     E E E E E E E E   E E E E E E E E   E E E E E   E  E  E
|-----------------||------------------|-----------------|---------------------|
|-----------------||o-----------------|-----------------|---------------------|
|-10-6-6-6-6--6-6-||--6-6-6-----------|-----------------|-----------/10-10-10-|
|--x-x-x-x-x--x-x-||--4-4-4-----------|---------7-7-4-4-|-5-5-5-5-5---x--x--x-|
|--8-4-4-4-4--4-4-||o-------2-2-2-4-4-|-4-5-5-5---------|------------/8--8--8-|
|-----------------||------------------|-----------------|---------------------|
|
| Gtr III
|                     PM------------------------------------------|
|  E E E E Q  E E     E E E E E E E E   E E E E E E E E   E E E E E   E  E  E
|-----------------||------------------|-----------------|---------------------|
|-----------------||o-----------------|-----------------|---------------------|
|-10-6-6-6-6--6-6-||--4-4-4-6-6-6-----|-----------------|-----------/10-10-10-|
|--x-x-x-x-x--x-x-||--------------5-5-|-5-4-4-4-3-3-----|-------------x--x--x-|
|--8-4-4-4-4--4-4-||o-----------------|-------------4-4-|-5-5-5-5-5--/8--8--8-|
|-----------------||------------------|-----------------|---------------------|


  1.                 2.
                             D.S. al Coda
  Gtrs II, III
                                   ~~~~~~
   E E E E Q  E E      E  E  E  E  Q   Q
|------------------||---------------------||
|-----------------o||---------------------||
|-10-6-6-6-6--6-6--||-10S12-12S14-14--14--||
|--x-x-x-x-x--x-x--||--x--x--x--x--x---x--||
|--8-4-4-4-4--4-4-o||--8S10-10S12-12--12--||
|------------------||---------------------||


   Bridge
    Q=155
    &
   3/4
        PM----|       PM----|       PM----|       PM----|
    E E E E E E   E E E E E E   E E E E E E   E E E E E E
||--------------|-------------|-------------|--------------||
||o-------------|-------------|-------------|-------------o||
||--8S7---------|-8S7---------|-------------|--------------||
||--x-----------|-x---------3-|-------------|-----5-5-5-5--||
||o-6S5---------|-6S5-------1-|-4S3---------|-8S7-4-4-4-4-o||
||------0-0-0-0-|-----0-3-5---|-4S3-3-3-3-3-|-8S7----------||


        PM----|       PM----|         PM------|
    E E E E E E   E E E E E E   E  E  E  E  E  E   E E E E E  E
||--------------|-------------|------------------|----------------||
||o-------------|-------------|------------------|---------------o||
||--------------|-------------|------------------|---------9S10---||
||--------------|-------------|------------------|----------------||
||o-1-0---------|-1-0-------8-|-9S11-------------|-9S8---8-------o||
||--1-0-0-0-0-0-|-1-0-0-3-5-8-|-9S11-11-11-11-11-|-9S8-8----------||


   Chorus
    $$
    Gtrs II, IV
     Q.   E Q     Q   Q  Q     Q   E E E E   Q   E E E E
||-------------|------------|--------------|---------------||
||o------------|------------|--------------|--------------o||
||-------------|------------|--------------|---------------||
||---7----7-7--|--7---7--7--|--------------|---------------||
||o--x----x-x--|--x---x--x--|--------------|--------------o||
||---8----8-8--|--7---8--7--|--0---0-0-0-0-|-3---3-3-3S5---||
|
|   Gtr III
|    TP           TP           TP            TP
|    H.           H.           H.            H.
||--10---------|------------|--------------|---------------||
||o------------|-10---------|-11-----------|-8------------o||
||-------------|------------|--------------|---------------||
||-------------|------------|--------------|---------------||
||o------------|------------|--------------|--------------o||
||-------------|------------|--------------|---------------||


                                         To Dbl. Coda
    Gtrs II, IV
     Q.   Q  E    Q   Q   Q     Q.   Q  E   Q   Q  Q
||-------------|-------------|------------|-------------||
||o------------|-------------|------------|------------o||
||-------------|-------------|------------|-------------||
||-------------|-------------|------------|-3---2-------||
||o--5----5--5-|--4---5---7--|--5----5--5-|--------5---o||
||---8----8--8-|--7---8--10--|--0----0--0-|-3---2--0----||
|    Q.   Q  E    Q   Q   Q     Q.   Q  E   Q   Q  Q
|
|   Gtr III
|    TP           TP            TP          TP
|    H.           H.            H.          H.
||--10---------|-------------|------------|-------------||
||o------------|-10----------|-11---------|-8----------o||
||-------------|-------------|------------|-------------||
||-------------|-------------|------------|-------------||
||o------------|-------------|------------|------------o||
||-------------|-------------|------------|-------------||


      PM----|         PM----|         PM----|         PM----|
  E E E E E E    E  E E E E E    E  E E E E E    E  E E E E E
|-------------|---------------|---------------|---------------|
|-------------|---------------|---------------|---------------|
|-------------|---------------|---------------|---------------|
|-------------|---------------|---------------|---------------|
|-------------|---------------|---------------|---------------|
|-1p0-0-0-0-0-|--1p=0-0-0-0-0-|--1p=0-0-0-0-0-|--1p=0-0-0-0-0-|
|
|                                >
| H.            +H.             +H.             +H.
|-------------|---------------|---------------|---------------|
|-------------|---------------|---------------|---------------|
|-7-----------|-(7)-----------|-(7)-----------|-(7)-----------|
|-------------|---------------|---------------|---------------|
|-------------|---------------|---------------|---------------|
|-------------|---------------|---------------|---------------|


  Gtrs II, III
      PM----|       PM----|       PM----|
  E E E E E E   E E E E E E   E E E E E E
|-------------|-------------|-------------|
|-------------|-------------|-------------|
|-------------|-------------|-------------|
|-------------|-------------|-------------|
|-------------|-------------|-------------|
|-1p0-0-0-0-0-|-1p0-0-0-0-0-|-1p0-0-0-0-0-|


                                           2/4       3/4
      PM----|       PM----|       PM----|       PM|
  E E E E E E   E E E E E E   E E E E E E   E E E E
|-------------|-------------|-------------|---------|-
|-------------|-------------|-------------|---------|-
|-------------|-------------|-------------|---------|-
|-------------|-------------|-------------|---------|-
|-------------|-------------|-------------|---------|-
|-1p0-0-0-0-0-|-1p0-0-0-0-0-|-1p0-0-0-0-0-|-1p0-0-0-|-

[ Tab from: http://www.guitartabs.cc/tabs/s/slipknot/vermilion_tab_ver_4.html ]
 Guitar Solo
 3/4
  Gtr IV
   TP            TP       TP               TP
   H            +Q       +H.              +H.             E  E  E  E  E  E
|---------------------|----------------|---------------|--------------------|
|-13b15========(13)---|-(13)-----------|-(13)----------|-13-13-13-13-13-13r-|
|---------------------|----------------|---------------|--------------------|
|---------------------|----------------|---------------|--------------------|
|---------------------|----------------|---------------|--------------------|
|---------------------|----------------|---------------|--------------------|
|
| Gtrs II, III
|          PM------------------------|         PM-----------------------|
|  E     E E E   E  E     E  E E E E E     E E E E E E    E  E  E  E  E  E
|---------------------|----------------|---------------|--------------------|
|---------------------|----------------|---------------|--------------------|
|---------------------|----------------|---------------|--------------------|
|---------------------|----------------|---------------|--------------------|
|---------------------|----------------|---------------|--------------------|
|--1p====0-0-0---0--0-|---0--0-0-0-0-0-|---1p0-0-0-0-0-|--0--0--0--0--0--0--|


   E        E        E      E      E      E
|-----------------------------------------------|
|-13pb14.5-13pb14.5-13pb14-13pb14-13pb14-13pb14-|
|-----------------------------------------------|
|-----------------------------------------------|
|-----------------------------------------------|
|-----------------------------------------------|
|
|                    PM--------------------------
|  E        E        E      E      E      E
|-----------------------------------------------|
|-----------------------------------------------|
|-----------------------------------------------|
|-----------------------------------------------|
|-----------------------------------------------|
|--1p=======0--------0------0------0------0-----|


   E        E        E  E  E  E    E  E  E  E  E  E    Q.    Q.
|-------------------------------|-------------------|-------------|
|-13pb13.5-13pb13.5-13-13-13-13-|-10h11p10----10S11-|-10----10----|
|-------------------------------|----------12-------|-------------|
|-------------------------------|-------------------|-------------|
|-------------------------------|-------------------|-------------|
|-------------------------------|-------------------|-------------|
|
|----------------------------|
|  E        E        E  E  E  E    H.                  Q.    Q.
|-------------------------------|-------------------|-------------|
|-------------------------------|-------------------|-------------|
|-------------------------------|-------------------|-------------|
|-------------------------------|--5----------------|--6-----6----|
|-------------------------------|--5----------------|--5-----5----|
|--0--------0--------0--0--0--0-|--5----------------|--6-----6----|


   H.                +H.              +H.             +H.
|-----------------|----------------|---------------|----------------|
|-----------------|----------------|---------------|----------------|
|-12b17-----------|-(12)-----------|-(12)----------|-(12)-----------|
|-----------------|----------------|---------------|----------------|
|-----------------|----------------|---------------|----------------|
|-----------------|----------------|---------------|----------------|
|
|         PM---------------------|         PM---------------------|
|  E    E E E E E     E  E E E E E     E E E E E E     E  E E E E E
|-----------------|----------------|---------------|----------------|
|-----------------|----------------|---------------|----------------|
|-----------------|----------------|---------------|----------------|
|-----------------|----------------|---------------|----------------|
|-----------------|----------------|---------------|----------------|
|--1p===0-0-0-0-0-|---0--0-0-0-0-0-|---1p0-0-0-0-0-|---0--0-0-0-0-0-|


                                           TP TP
   +H.             +H.              S  S E Q  Q    S  S E S S E  S S E
|---------------|-----------------|--------------|---------------------|
|---------------|-----------------|--------------|---------------------|
|-(12)----------|-(12)\-----------|--------------|---------------------|
|---------------|-----------------|-7--8-7-7--7--|-7--8-7-7-8-7--7-8-7-|
|---------------|-----------------|--------------|---------------------|
|---------------|-----------------|--------------|---------------------|
|
|       PM----------------------|
|   E E E E E E     E   E E E E E   H.             Q.         Q.
|---------------|-----------------|--------------|---------------------|
|---------------|-----------------|--------------|---------------------|
|---------------|-----------------|--------------|---------------------|
|---------------|-----------------|-5------------|-6----------6--------|
|---------------|-----------------|-5------------|-5----------5--------|
|---1p0-0-0-0-0-|---0---0-0-0-0-0-|-5------------|-6----------6--------|


                      ~~                                 ~~
   H          +Q      H.              H          +Q      H.
|-------------------|--------------|-------------------|--------------|
|-------------------|--------------|-------------------|--------------|
|-------------------|--------------|-------------------|--------------|
|-[7]b8-------(7)---|-7------------|-[7]b8-------(7)---|-7------------|
|-------------------|--------------|-------------------|--------------|
|-------------------|--------------|-------------------|--------------|
|
|         PM---------------------|           PM---------------------|
|  E    E E E  E  E   E  E E E E E    E    E E E  E  E   E  E E E E E
|-------------------|--------------|-------------------|--------------|
|-------------------|--------------|-------------------|--------------|
|-------------------|--------------|-------------------|--------------|
|-------------------|--------------|-------------------|--------------|
|-------------------|--------------|-------------------|--------------|
|--1p===0-0-0--0--0-|-0--0-0-0-0-0-|--1p===0-0-0--0--0-|-0--0-0-0-0-0-|


                      ~~
   H          +Q      H.
|-------------------|--------------|
|-------------------|--------------|
|-------------------|--------------|
|-[7]b8-------(7)---|-7------------|
|-------------------|--------------|
|-------------------|--------------|
|
|         PM---------------------|
|  E    E E E  E  E   E  E E E E E
|-------------------|--------------|
|-------------------|--------------|
|-------------------|--------------|
|-------------------|--------------|
|-------------------|--------------|
|--1p===0-0-0--0--0-|-0--0-0-0-0-0-|


   |----3-----|  |--3--|  |--3--|    |--3---|  |---3----|  |--3--|
   E     +E   E  E  E  E  E  E  E    E   E  E  E  E     E  E  E  E
|-13b15r(13)-11-13p11-10-11p10----|-10------------------------------|
|------------------------------13-|-----13-11-13p11----10-10h11p10--|
|---------------------------------|---------------------------------|
|---------------------------------|---------------------------------|
|---------------------------------|---------------------------------|
|---------------------------------|---------------------------------|
|
|  H.                                Q.             Q.
|---------------------------------|---------------------------------|
|---------------------------------|---------------------------------|
|---------------------------------|---------------------------------|
|--5------------------------------|--6--------------6---------------|
|--5------------------------------|--5--------------5---------------|
|--5------------------------------|--6--------------6---------------|


   S  S  E  S  S  E  S  S  E    S  S  E  S  S  E  S  S  E
|----------------------------|----------------------------|
|-10h11p10-10h11----10h11p10-|-10h11p10-10h11----10h11p10-|
|----------------12----------|----------------12----------|
|----------------------------|----------------------------|
|----------------------------|----------------------------|
|----------------------------|----------------------------|
|
|           PM-----------------------------------------|
|  E     E  E     E  E     E    E     E  E     E  E     E
|----------------------------|----------------------------|
|----------------------------|----------------------------|
|----------------------------|----------------------------|
|----------------------------|----------------------------|
|----------------------------|----------------------------|
|--1p====0--0-----0--0-----0-|--0-----0--0-----0--0-----0-|


   S  S  E  S  S  E  S  S  E    S  S  E  S  S  E  S  S  E
|----------------------------|----------------------------|
|-10h11p10-10h11----10h11p10-|-10h11p10-10h11----10h11p10-|
|----------------12----------|----------------12----------|
|----------------------------|----------------------------|
|----------------------------|----------------------------|
|----------------------------|----------------------------|
|
|           PM-----------------------------------------|
|  E     E  E     E  E     E    E     E  E     E  E     E
|----------------------------|----------------------------|
|----------------------------|----------------------------|
|----------------------------|----------------------------|
|----------------------------|----------------------------|
|----------------------------|----------------------------|
|--1p====0--0-----0--0-----0-|--0-----0--0-----0--0-----0-|


   S  S  E  S  S  E  S  S  E   S  S E  S  S  E S  S E
|----------------------------|------------------------|
|-10h11p10-------------------|------------------------|
|----------12h14p12-10h12p10-|-9h10p9-10h12p10-9h10p9-|
|----------------------------|------------------------|
|----------------------------|------------------------|
|----------------------------|------------------------|
|
|           PM--------------------------------------|
|  E     E  E     E  E     E   E    E  E     E E    E
|----------------------------|------------------------|
|----------------------------|------------------------|
|----------------------------|------------------------|
|----------------------------|------------------------|
|----------------------------|------------------------|
|--1p====0--0-----0--0-----0-|-0----0--0-----0-0----0-|


  H.          S  S  S S  S  S S S  S S S  S
|-----------|-------------------------------|
|-----------|-------------------------------|
|-----------|------------------------7-9-10-|
|-7tr8------|-7--8-10-7--8-10-7-8-10--------|
|-----------|-------------------------------|
|-----------|-------------------------------|
|
| H.          Q.      Q.
|-----------|-------------------------------|
|-----------|-------------------------------|
|-----------|-------------------------------|
|-5---------|-6-------6---------------------|
|-5---------|-5-------5---------------------|
|-5---------|-6-------6---------------------|


   S   S  S  S  S  S  S  S  S  S  S  S    S   S  S  S  S  S  S   S  S  S  S  S
|--------------------------------------|--------10-13-------10--13-------10-13-|
|-----10-11-13----10-11-13----10-11-13-|-10--13-------10-13--------10-13-------|
|-12-----------12----------12----------|---------------------------------------|
|--------------------------------------|---------------------------------------|
|--------------------------------------|---------------------------------------|
|--------------------------------------|---------------------------------------|
|
|  H.                                     Q.                 Q.
|--------------------------------------|---------------------------------------|
|--------------------------------------|---------------------------------------|
|--------------------------------------|---------------------------------------|
|--5-----------------------------------|--6------------------6-----------------|
|--5-----------------------------------|--5------------------5-----------------|
|--5-----------------------------------|--6------------------6-----------------|


   S   S  S  S  S  S  S  S  S  S  S  S    S   S  S  S  S  S  S   S  S  S  S  S
|--------10-13-------10-13-------10-13-|--------10-13-------10--13-------10-13----|
|-10--13-------10-13-------10-13-------|-10--13-------10-13--------10-13----------|
|--------------------------------------|------------------------------------------|
|--------------------------------------|------------------------------------------|
|--------------------------------------|------------------------------------------|
|--------------------------------------|------------------------------------------|
|
|  H.                                     Q.                 Q.
|--------------------------------------|------------------------------------------|
|--------------------------------------|------------------------------------------|
|--------------------------------------|------------------------------------------|
|--5-----------------------------------|--6------------------6--------------------|
|--5-----------------------------------|--5------------------5--------------------|
|--5-----------------------------------|--6------------------6--------------------|


   Pre-Chorus
    Gtrs II, III
        PM----|       PM----|       PM----|       PM----|
    E E E E E E   E E E E E E   E E E E E E   E E E E E E
||--------------|-------------|-------------|---------------||
||o-------------|-------------|-------------|--------------o||
||--8S7---------|-8S7---------|-------------|---------------||
||--x-----------|-x---------3-|-------------|-----5-5-5-5---||
||o-6S5---------|-6S5-------1-|-4S3---------|-8S7-4-4-4-4--o||
||------0-0-0-0-|-----0-3-5---|-4S3-3-3-3-3-|-8S7-----------||


                                             D.S.S. al Dbl. Coda
        PM----|       PM----|         PM------|
    E E E E E E   E E E E E E   E  E  E  E  E  E   E E E E E  E
||--------------|-------------|------------------|----------------||
||o-------------|-------------|------------------|---------------o||
||--------------|-------------|------------------|---------9S10---||
||--------------|-------------|------------------|----------------||
||o-1-0---------|-1-0-------8-|-9S11-------------|-9S8---8-------o||
||--1-0-0-0-0-0-|-1-0-0-3-5-8-|-9S11-11-11-11-11-|-9S8-8----------||


    &&
     Q.   E Q     Q   Q  Q     Q   E E E E   Q   E E E E   4x
||-------------|------------|--------------|---------------||
||o------------|------------|--------------|--------------o||
||-------------|------------|--------------|---------------||
||---7----7-7--|--7---7--7--|--------------|---------------||
||o--x----x-x--|--x---x--x--|--------------|--------------o||
||---8----8-8--|--7---8--7--|--0---0-0-0-0-|-3---3-3-3S5---||
|
|    TP           TP           TP            TP
|    H.           H.           H.            H.            4x
||--10---------|------------|--------------|---------------||
||o------------|-10---------|-11-----------|-8------------o||
||-------------|------------|--------------|---------------||
||-------------|------------|--------------|---------------||
||o------------|------------|--------------|--------------o||
||-------------|------------|--------------|---------------||


   Outro
    Q   Q  Q     Q   Q  Q     Q   Q  Q    Q   Q  Q
||------------|------------|------------|------------|
||o-----------|------------|------------|------------|
||------------|------------|------------|------------|
||------------|------------|------------|------------|
||o-----------|------------|------------|------------|
||--0---0--0--|--0---0--0--|--8---8--8--|-8---8--8---|
|
|   TP           TP           TP          TP
|   H.           H.           H.          H.
||------------|------------|------------|------------|
||o-----------|-10---------|-11---------|-8----------|
||--7---------|------------|------------|------------|
||------------|------------|------------|------------|
||o-----------|------------|------------|------------|
||------------|------------|------------|------------|


   Q   Q  Q    Q   Q  Q     Q   Q  Q    Q   Q  Q   6x
|------------|-----------|------------|------------||
|------------|-----------|------------|-----------o||
|------------|-----------|------------|------------||
|------------|-----------|------------|------------||
|------------|-----------|------------|-4---4--4--o||
|--7---7--7--|-7---7--7--|--5---5--5--|------------||
|
|  TP          TP           TP          TP
|  H.          H.           H.          H.         6x
|------------|-----------|------------|------------||
|-10---------|-----------|-10---------|-8---------o||
|------------|-9---------|------------|------------||
|------------|-----------|------------|------------||
|------------|-----------|------------|-----------o||
|------------|-----------|------------|------------||


  H.        +H.
|---------:--------*|
|---------:--------*|
|---------:--------*|
|-0-------:-(0)----*|
|-0-------:-(0)----*|
|-0-------:-(0)----*|
|
| >
| H.         H.
|---------:--------*|
|---------:--------*|
|-7-------:--------*|
|---------:--------*|
|---------:--------*|
|---------:--------*|



***************************************************************************************
* Generated using Power Tab Editor by Brad Larsen - http://powertab.guitarnetwork.org *
***************************************************************************************
Comments