Slipknot - Vermilion Chords & Tabs

 

Vermilion Chords & Tabs

Slipknot Chords & Tabs

Version: 2 Type: Tab 0 ratings
1 star 2 stars 3 stars 4 stars 5 stars
comments

Vermilion Tab

   
B,F#,B,E,G#,C#
                                      Some delay or something
C# |------------------15------14---------------------|
G# |-----12----14------------------------------------|
E  |-------------------------------------------------|(intro)
B  |-------------------------------------------------| 
F# |-------------------------------------------------|
B  |-------------------------------------------------|

C# |-------------------------------------------------|
G# |-------------------------------------------------|
E  |-------------------------------------------------| (verse/intro)
B  |-2-x--2-x--3-x--3--------------------------------|
F# |-0-x--3-x--5-x--2--------------------------------|
B  |-------------------------------------------------|

                 Or try this other verse

C# |-------------------------------------------------|
G# |-------------------------------------------------| ( alternate )
E  |--------x-7-x-6----------------------------------| (verse/into )
B  |--4-x-6-x-5-x-4----------------------------------|
F# |--2-x-4------------------------------------------|
B  |-------------------------------------------------|


(mick or jim is playing this after the end of the verse)
C# |-------------------------------------------------|
G# |-------------------------------------------------|
E  |-------------------------------------------------|
B  |-------------------------------------------------|
F# |-----5/8-8-8\3-3-3-3-3---------------------------|
B  |-------------------------------------------------|


C# |-------------------------------------------------|
G# |-------------------------------------------------|
E  |-------------------------------------------------|
B  |--------3-3----5-57-7---------------------------|
F# |---5-5-------------------------------------------|
B  |-------------------------------------------------|

            |--------------P.M---------------------|
C# |-------------------------------------------------|
G# |-------------------------------------------------|
E  |-------------------------------------------------| (when he says OH')
B  |--10-----0-0-0-0--1-1-1--0-0-0--6-6-6--5-5-5-5---|    (pre-chorus1)
F# |--10-----0-0-0-0--1-1-1--0-0-0--6-6-6--5-5-5-5---|
B  |--10-----0-0-0-0-1-1-1--0-0-0--6-6-6--5-5-5-5---|
[ Tab from: http://www.guitartabs.cc/tabs/s/slipknot/vermilion_tab_ver_2.html ]
             P.M            P.M         P.M  
C# |-------------------------------------------------|
G# |-------------------------------------------------|
E  |-------------------------------------------------|
B  |--13p12---------13p12-0-0-0-0-4p3-0-0-0-0-8p7----|(hard to say what caught my attention)
F# |--13p12-0-0-0-0-13p12-0-0-0-0-4p3-0-0-0-0-8p7----|      (pre-chorus2)
B  |--13p12-0-0-0-0-13p12-0-0-0-0-4p3-0-0-0-0-8p7----|


C# |----------------------------------|
G# |----------------------------------|
E  |----------------------------------|  (chorus)
B  |--8-------7------0----------------|
F# |--8-------7------0----------------|
B  |--8-------7------0----------------|

         (played behind chorus)
C# |---------------------------------------|
G# |---------------------------------------|
E  |--14--12--7------14--12--7--10---------|
B  |---------------------------------------|
F# |--12--10--5------12--10--5--8----------|
B  |---------------------------------------|
               
C# |-------------------------------------------------|
G# |-------------------------------------------------|
E  |-------------------------------------------------|
B  |--13p12---------13p12-0-0-0-0--------------------|(hard to say what caught my attention)
F# |--13p12-0-0-0-0-13p12-0-0-0-0--------------------|      (interlude)
B  |--13p12-0-0-0-0-13p12-0-0-0-0--------------------|

  (the outro part when he's saying she isn't real)
C# |---------------------------------------|
G# |---------------------------------------|
E  |---------------------------------------|
B  |--0----8---7---5-----------------------|
F# |--0----8---7---5-----------------------|
B  |--0----8---7---5-----------------------|

             (played behind the outro)
C# |---------------------------------------------|
G# |---------------------------------------------|
E  |--14--15--14--12----14--15--14--12--10-------|
B  |---------------------------------------------|
F# |--12--13--12--10----12--13--12--10--8--------|
B  |---------------------------------------------|



Intro
Verse x8
Pre-chorus1 x4
Verse x4
Pre-chorus1 x4
Pre-chorus2 x4
Chorus x4
Interlude x like 20 times (solo in background and I don't know it)
Interlude x 8
Chorus x 8
Outro x like 4 or 6 I'm not sure

Find out the strummings on your own
I know it sucks but I tried my best and stuff
Comments