Slipknot - Vermilion Chords & Tabs

 

Vermilion Chords & Tabs

Slipknot Chords & Tabs

Version: 1 Type: Tab 6 ratings
1 star 2 stars 3 stars 4 stars 5 stars
comments

Vermilion Tab

   
Song .:. Vermilion
Artist .:. Slipknot
Tabbed by .:. KURDT COBAIN (Jake)


key:
/h:slide up and hit
\h:slide down and hit
/:slide up (the more there are like /// the slower u go)
\:slide down (the more there are like \\\ the slower u go)
h: hammer on
p:pull-off
 ~~~~
|----: wiggle the string
p.m.: palm mute
t: trill
b:1/2 bend
B:full bend
BB:1 1/2 bend
Bv: bring bend back down
|---#~:let ring

   I THINK THATS ALL WE NEED FOR THIS TAB WELL HERE

tune drop D. down 1 1/2 steps
 _ _ _ _
|       like that
|
|
V    -(intro)-
B) |------------------------------------------15--------------14--------------------------------|
F#)|-----12----------------14-------------------------------------------------------------------|
B) |--------------------------------------------------------------------------------------------|
E) |--------------------------------------------------------------------------------------------|
G#)|--------------------------------------------------------------------------------------------|
C#)|--------------------------------------------------------------------------------------------|
    -(riff A)-                                                               ~~~~~
|---------------------------------------------------------------------------------|
|---------------------------------------------------------------------------------|
|-----4-------6-------6-------6---------6-6-6-------------6/h-10-10---6-6-6-6-----|   play this 3 times 
|-----x-------x-------5-5-5-5-4-4-4-4-4-5-4-x-4-4-4-4-4-4-x---x--x----x-x-x-x-----|
|-----5-5-5-5-5-5-5-5-----------------------5-5-5-5-5-5-5-4/h-8--8----4-4-4-4-----|
|---------------------------------------------------------------------------------|
 p.m.   . . .   . . .   . . .   . . . .       . . . . . .

    -(riff B)-                                                                      ~~
|--------------------------------------------------------------------------------------------|
|--------------------------------------------------------------------------------------------|
|-----4-------6-------6-------6---------6-6-6-------------6/h-10-10-10/h-12-12/h-14-14--14\--|
|-----x-------x-------5-5-5-5-4-4-4-4-4-5-4-x-4-4-4-4-4-4-x---x--x--x----x--x----x--x---x----|
|-----5-5-5-5-5-5-5-5-----------------------5-5-5-5-5-5-5-4/h-8--8--8-/h-10-10/h-12-12--12\--|
|--------------------------------------------------------------------------------------------|
p.m.    . . .   . . .   . . .   . . . .       . . . . . . 

    -(riff C)- 
|-----------------------------------------------------------------------------------|
|-----------------------------------------------------------------------------------|
|----------------------------------------------------------6/h-10-10---6-6-6-6-6----|
|----------------------------------------------------------x---x--x----x-x-x-x-x----|
|----------------------------------------------------------4/h-8--8--0-4-4-4-4-4----|
|-----------------------------------------------------------------------------------|

    -(riff C)- 
|-----------------------------------------------------------------------------------|
|-----------------------------------------------------------------------------------|
|----------------------------------------------------------6/h-10-10---6-6-6-6-6----|
|----------------------------------------------------------x---x--x----x-x-x-x-x----|
|----------------------------------------------------------4/h-8--8--0-4-4-4-4-4----|
|-----------------------------------------------------------------------------------|

    -(riff A)-                                                               ~~~~~
|---------------------------------------------------------------------------------|
|---------------------------------------------------------------------------------|
|-----4-------6-------6-------6---------6-6-6-------------6/h-10-10---6-6-6-6-----|   play this 3 times 
|-----x-------x-------5-5-5-5-4-4-4-4-4-5-4-x-4-4-4-4-4-4-x---x--x----x-x-x-x-----|
|-----5-5-5-5-5-5-5-5-----------------------5-5-5-5-5-5-5-4/h-8--8----4-4-4-4-----|
|---------------------------------------------------------------------------------|

-(rhythm fig. 2)- (rhythm fig. 1 is played by other guitar)
|--------------------------------------------------------------------|
|--------------------------------------------------------------------|
|----4----4----4----4----4----4----4------4--4--4----7------10~---\--|
|----2----2----2----2----2----2----2------2--2--2----5------8~----\--|
|----3----3----3----3----3----3----3------3--3--3----6------9~----\--|
|--------------------------------------------------------------------|

    -(riff D)-
|----------------------------------------------------------------------|
|----------------------------------------------------------------------|
|----------------------------------------------------------------------|
|-------0-----1-----0-----7-----6----------0-----1-----0-----7-----6---|
|-----0-----1-----0-----7-----6---6------0-----1-----0-----7-----6---6-|
|---0-----1-----0-----7-----6----------0-----1-----0-----7-----6-------|
p.m....................................................................

|-----------------------------------------------------------------------|
|-----------------------------------------------------------------------|
|-----------------------------------------------------------------------|
|-------0-----1-----0-----7-----6----------0-----1-----0-----7-----6----| last one here is not palm muted
|-----0-----1-----0-----7-----6---6------0-----1-----0-----7-----6---6\-|
|---0-----1-----0-----7-----6----------0-----1-----0-----7-----6--------|
p.m..................................................................

    -(riff E)-
|-------------------------------------------------------------------------------------|
|-------------------------------------------------------------------------------------|
|----------------------------------------------------------/10-10-10-10-6-6-6-6-6-6-6-|
|-----------------------------------------------------------x--x--x--x--x-x-x-x-x-x-x-|
|----------------------------------------------------------/8--8--8--8--4-4-4-4-4-4-4-|
|-------------------------------------------------------------------------------------|

    -(riff E)-
|-------------------------------------------------------------------------------------|
|-------------------------------------------------------------------------------------|
|----------------------------------------------------------/10-10-10-10-6-6-6-6-6-6-6-|
|-----------------------------------------------------------x--x--x--x--x-x-x-x-x-x-x-|
|----------------------------------------------------------/8--8--8--8--4-4-4-4-4-4-4-|
|-------------------------------------------------------------------------------------|

|-----------------------------------------------------------------------------------------|
|-----------------------------------------------------------------------------------------|
|----4-4-4-4-6-6-6-6-------------------3-3-3-------------------/10-10-10-10-6-6-6-6-6-6-6-|
|---------------------5-5-5-5-4-4-4-4---------------------------x--x--x--x--x-x-x-x-x-x-x-|
|---------------------------------------------4-4-4-5-5-5-5-5-5/8--8--8--8--4-4-4-4-4-4-4-|
|-----------------------------------------------------------------------------------------|
p.m............................................................

|-----------------------------------------------------------------------------------------|
|-----------------------------------------------------------------------------------------|
|----4-4-4-4-6-6-6-6-------------------3-3-3-------------------/10-10-10-10-6-6-6-6-6-6-6-|
|---------------------5-5-5-5-4-4-4-4---------------------------x--x--x--x--x-x-x-x-x-x-x-|
|---------------------------------------------4-4-4-5-5-5-5-5-5/8--8--8--8--4-4-4-4-4-4-4-|
|-----------------------------------------------------------------------------------------|
p.m............................................................

-(rhythm fig. 2)- (rhythm fig. 1 is played by other guitar)
|--------------------------------------------------------------------|
|--------------------------------------------------------------------|
|----4----4----4----4----4----4----4------4--4--4----7------10~---\--|
|----2----2----2----2----2----2----2------2--2--2----5------8~----\--|
|----3----3----3----3----3----3----3------3--3--3----6------9~----\--|
|--------------------------------------------------------------------|

    -(riff D)-
|----------------------------------------------------------------------|
|----------------------------------------------------------------------|
|----------------------------------------------------------------------|
|-------0-----1-----0-----7-----6----------0-----1-----0-----7-----6---|
|-----0-----1-----0-----7-----6---6------0-----1-----0-----7-----6---6-|
|---0-----1-----0-----7-----6----------0-----1-----0-----7-----6-------|
p.m....................................................................

    -(riff D1)-
|----------------------------------------------------------------------|
|----------------------------------------------------------------------|
|----------------------------------------------------------------------|
|----------------------------------------------------------------------|
|----------------------------------------------------------------------|
|---0-----1-----0-----7-----6----------0-----1-----0-----7-----6-------|
p.m....................................................................

-(rhythm fig.3)-
|--------------------------------------------------------------------|
|--------------------------------------------------------------------|
|----8\h\7-------------8\h\7-----------------------------------------|
|----x---x-------------x---x-------------------------4\h\3-3-3-3-3-3-|
|----6\h\5-------------6\h\5------1--4\\3-3-3-3-3-3--2\h\1-4-4-4-4-4-|
|----------0-0-0-0-0--------0-3-0----4\\3-3-3-3-3-3------------------|
p.m.       . . . . .        . . . .       . . . . .        . . . . .

-(rhythm fig.3)-
|--------------------------------------------------------------------|
|--------------------------------------------------------------------|
|----8\h\7-------------8\h\7-----------------------------------------|
|----x---x-------------x---x-------------------------4\h\3-3-3-3-3-3-|
|----6\h\5-------------6\h\5------1--4\\3-3-3-3-3-3--2\h\1-4-4-4-4-4-|
|----------0-0-0-0-0--------0-3-0----4\\3-3-3-3-3-3------------------|
p.m.       . . . . .        . . . .       . . . . .        . . . . .

-(rhythm fig. 4)-
|--------------------------------------------------------------|
|---------------------------------------------------------5h6--|
|--------------------------------------------------------------|
|-----------------------------2/h-6-6-6-6-6-6--4\h-3-3---------|
|--1p0-----------1p0-------1--2/h-4-4-4-4-4-4--2\h-1---0-------|
|--1p0-0-0-0-0-0-1p0-0-3-5-------------------------------------|
p.m.   . . . . .     . . . .        . . . . .        . 

-(rhythm fig. 4)-
|--------------------------------------------------------------|
|---------------------------------------------------------5h6--|
|--------------------------------------------------------------|
|-----------------------------2/h-6-6-6-6-6-6--4\h-3-3---------|
|--1p0-----------1p0-------1--2/h-4-4-4-4-4-4--2\h-1---0-------|
|--1p0-0-0-0-0-0-1p0-0-3-5-------------------------------------|
p.m.   . . . . .     . . . .        . . . . .        . 

-(rhythm fig.5)-
|--------------------------------------------------------|
|--------------------------------------------------------|
|--------------------------------------------------------|
|--7--7-7-7-7-7-7--7--7\\\-------------------------------|
|--x--x-x-x-x-x-x--x--x\\\-------------------------------|
|--8--8-8-8-8-8-7--8--7\\\-0---0-0-0-0-0--3---3-3-3-3-3/-|
[ Tab from: http://www.guitartabs.cc/tabs/s/slipknot/vermilion_tab.html ]
-(rhythm fig.5)-
|--------------------------------------------------------|
|--------------------------------------------------------|
|--------------------------------------------------------|
|--7--7-7-7-7-7-7--7--7\\\-------------------------------|
|--x--x-x-x-x-x-x--x--x\\\-------------------------------|
|--8--8-8-8-8-8-7--8--7\\\-0---0-0-0-0-0--3---3-3-3-3-3/-|

-(rhythm fig. 6)-
|----------------------------------------------|
|----------------------------------------------|
|----------------------------------------------|
|----------------------------------------------|
|--5----5-5-5-5--4--5--4\\---------------------|
|--8----8-8-8-8--7--8--7\\----0-0-0-0-0-3-2-0--|

-(rhythm fig. 6)-
|----------------------------------------------|
|----------------------------------------------|
|----------------------------------------------|
|----------------------------------------------|
|--5----5-5-5-5--4--5--4\\---------------------|
|--8----8-8-8-8--7--8--7\\----0-0-0-0-0-3-2-0--|

    -(interlude)-
|----------------------------------------------------------|
|----------------------------------------------------------|
|----------------------------------------------------------| play this 2 times
|----------------------------------------------------------|
|----------------------------------------------------------|
|--1p0-0-0-0-0-0-1p0-0-0-0-0-0-1p0-0-0-0-0-0-1p0-0-0-0-0-0-|
p.m.   . . . . .     . . . . .     . . . . .     . . . . .

|------------------------------------------------------------------|
|------------------------------------------------------------------|
|------------------------------------------------------------------|
|------------------------------------------------------------------|
|--1p0-----------1p0-----------1p0-------1p0-----------------------|
|--1p0-0-0-0-0-0-1p0-0-0-0-0-0-1p0-0-0-0-1p0-0-0-0-0-0---0-0-0-0-0-|
p.m.   . . . . .     . . . . .     . . .     . . . . .   . . . . .

ok now instead of doing the rest of this guitar tab for this guitar ill do the solo then go back

with wah wah
hold bend and hit all the notes till here         --v then hold that bend and hit those notes
|----------------------------------------------------------------------------------------|
|-13B-13-13-13-13-13-13-13-13-13-13-13-13-13-13-13-13--13b-13-13-13-13-13--13-13-13-13---|
|--------------------------------------------------------------------------------------0-|
|----------------------------------------------------------------------------------------|
|----------------------------------------------------------------------------------------|
|----------------------------------------------------------------------------------------|
                        ~~~~~~~~~~~~~~~~~~
|----------------------------------------------------------------------|            last on grad. bend is 5 1/2
|--10h11p10----10h11--10------10---------------------------------------|
|-----------12----------------------------13~-----b------BB--------BBB-|
|----------------------------------------------------------------------|
|----------------------------------------------------------------------|
|----------------------------------------------------------------------|
                                 flutter wah -----------------------|
|-------------------------------------------------------------------|
|-------------------------------------------------------------------|
|------------------------13Bv---------------------------------------|
|---------------------------------8------7-----7-8-----7------7-----|
|-------------------------------------------------------------------|
|-------------------------------------------------------------------|
                flutter wah--|                         ~~~~~~~~~~~~~~~~~~
|---------------------------------------------------------------------------|
|---------------------------------------------------------------------------|
|---------------------------------------------------------------------------|
|--7~-----b------7~-----------\\-7~--------------b---7~------------------\\-|
|---------------------------------------------------------------------------|
|---------------------------------------------------------------------------|

|-------------------------------------13Bv-p10h13p10----10h13p10---------------------------------|
|----------------------------------------------------13----------13---13p11p10-11p10----10h11-10-|
|------------------------------------------------------------------------------------12----------|
|----7~-------------b------7~------\-------------------------------------------------------------|
|------------------------------------------------------------------------------------------------|
|------------------------------------------------------------------------------------------------|

|-----------------------------------------------------------------------------------------------------|
|--10h11p10-10h11p10----10h11p10-10h11p10-10h11p10----10h11p10-10h11p10-10h11p10----10h11p10-10h11p10-|
|--------------------12----------------------------12----------------------------12-------------------|
|-----------------------------------------------------------------------------------------------------|
|-----------------------------------------------------------------------------------------------------|
|-----------------------------------------------------------------------------------------------------|

|--------------------------------------------------------------------------------------------------|
|--10h11p10-8h10p8-6h8p6-5h6p5h6-6h8p6-5h6p5-------------------------------------------------------|
|--------------------------------------------7h8p7-5h7p5-7h8-7h8-7h8-7h8-7h8-7h8-7h8-7h8-7h8-7h8\\-|
|--------------------------------------------------------------------------------------------------|
|--------------------------------------------------------------------------------------------------|
|--------------------------------------------------------------------------------------------------|

|----------------------------------------------------------------------------------------|
|-----------------------------------------------------------------10-13p10h13p10---------|
|------------------------------9p7h9-10p8h10-12p10-10-12p10h12-12----------------12-10---|
|--10p8p7h8h10p8p7h8-12p10h12----------------------------------------------------------0-|
|----------------------------------------------------------------------------------------|
|----------------------------------------------------------------------------------------|

|----------------------------------------|
|--14~--------b------B----------------BB-|
|----------------------------------------|
|----------------------------------------|
|----------------------------------------|
|----------------------------------------|

k now we'll go back to the other guitar

-(rhythm fig. 4)-
|--------------------------------------------------------------|
|---------------------------------------------------------5h6--|
|--------------------------------------------------------------|
|-----------------------------2/h-6-6-6-6-6-6--4\h-3-3---------|
|--1p0-----------1p0-------1--2/h-4-4-4-4-4-4--2\h-1---0-------|
|--1p0-0-0-0-0-0-1p0-0-3-5-------------------------------------|
p.m.   . . . . .     . . . .        . . . . .        . 

-(rhythm fig. 4)-
|--------------------------------------------------------------|
|---------------------------------------------------------5h6--|
|--------------------------------------------------------------|
|-----------------------------2/h-6-6-6-6-6-6--4\h-3-3---------|
|--1p0-----------1p0-------1--2/h-4-4-4-4-4-4--2\h-1---0-------|
|--1p0-0-0-0-0-0-1p0-0-3-5-------------------------------------|
p.m.   . . . . .     . . . .        . . . . .        . 

-(rhythm fig. 7)-
|---------------------------------------------------------------------------------------------------------|
|---------------------------------------------------------------------------------------------------------|
|---------------------------------------------------------------------------------7-7--7-7-7-7-7--7--6--6-|
|-----------------------------------------------10-10-10-10-10-10-10-10-7-7-------x-5--5-5-5-5-5--x--x--x-|
|--12---12-12-12-12-12-12-7-8-7-10--10-10-10-10-8--8--8--8--8--8--7--7--7-7-7-7-7-5-5--5-5-5-5-5--8--7--8-|
|--0----0--0--0--0--0--0--0-0-0-8---8--8--8--8--8--8--8--8--8--8--7--7--7-7-7-7-7---5--5-5-5-5-5----------|

|-----------------------------------------------------------------------------------------------------------|
|-----------------------------------------------------------------------------------------------------------|
|---------------------------------------------------------------------------9-9-9-9-9-9/h-12--12/h-14-14-14-|
|----------------------------8---8-8-8-8-8-8-8-7-8\\------------------------x-x-x-x-x-x---x---x----x--x--x--|
|-12--12-12-12-12-12-7--8--8-x---x-x-x-x-x-x-x-x-x---5--5-5-5-5-5-----------7-7-7-7-7-7/h-10--10/h-12-12-12-|
|-0---0--0--0--0--0--0--0--0-8---8-8-8-8-8-8-8-8-8\\-5--5-5-5-5-5--3--2--0----------------------------------|

-(rhythm fig. 7)-
|---------------------------------------------------------------------------------------------------------|
|---------------------------------------------------------------------------------------------------------|
|---------------------------------------------------------------------------------7-7--7-7-7-7-7--7--6--6-|
|-----------------------------------------------10-10-10-10-10-10-10-10-7-7-------x-5--5-5-5-5-5--x--x--x-|
|--12---12-12-12-12-12-12-7-8-7-10--10-10-10-10-8--8--8--8--8--8--7--7--7-7-7-7-7-5-5--5-5-5-5-5--8--7--8-|
|--0----0--0--0--0--0--0--0-0-0-8---8--8--8--8--8--8--8--8--8--8--7--7--7-7-7-7-7---5--5-5-5-5-5----------|

|-----------------------------------------------------------------------------------------------------------|
|-----------------------------------------------------------------------------------------------------------|
|---------------------------------------------------------------------------9-9-9-9-9-9/h-12--12/h-14-14-14-|
|----------------------------8---8-8-8-8-8-8-8-7-8\\------------------------x-x-x-x-x-x---x---x----x--x--x--|
|-12--12-12-12-12-12-7--8--8-x---x-x-x-x-x-x-x-x-x---5--5-5-5-5-5-----------7-7-7-7-7-7/h-10--10/h-12-12-12-|
|-0---0--0--0--0--0--0--0--0-8---8-8-8-8-8-8-8-8-8\\-5--5-5-5-5-5--3--2--0----------------------------------|

-(rhythm fig. 7)-
|---------------------------------------------------------------------------------------------------------|
|---------------------------------------------------------------------------------------------------------|
|---------------------------------------------------------------------------------7-7--7-7-7-7-7--7--6--6-|
|-----------------------------------------------10-10-10-10-10-10-10-10-7-7-------x-5--5-5-5-5-5--x--x--x-|
|--12---12-12-12-12-12-12-7-8-7-10--10-10-10-10-8--8--8--8--8--8--7--7--7-7-7-7-7-5-5--5-5-5-5-5--8--7--8-|
|--0----0--0--0--0--0--0--0-0-0-8---8--8--8--8--8--8--8--8--8--8--7--7--7-7-7-7-7---5--5-5-5-5-5----------|

|-----------------------------------------------------------------------------------------------------------|
|-----------------------------------------------------------------------------------------------------------|
|---------------------------------------------------------------------------9-9-9-9-9-9/h-12--12/h-14-14-14-|
|----------------------------8---8-8-8-8-8-8-8-7-8\\------------------------x-x-x-x-x-x---x---x----x--x--x--|
|-12--12-12-12-12-12-7--8--8-x---x-x-x-x-x-x-x-x-x---5--5-5-5-5-5-----------7-7-7-7-7-7/h-10--10/h-12-12-12-|
|-0---0--0--0--0--0--0--0--0-8---8-8-8-8-8-8-8-8-8\\-5--5-5-5-5-5--3--2--0----------------------------------|

|----------------------------------------------------------------------------|
|----------------------------------------------------------------------------|
|----------------------------------------------------------------------------|
|----------------------------------------------------------------------------|
|----------------------------------------------------------------------------|
|--0~------------------------------------------------------------------------|

This was my first ever tab :$ took me ages im only 12 ^.^ hope ya like it comments and plz rate 
Comments