Slipknot - Vermilion Pt Chords & Tabs

 

Vermilion Pt Chords & Tabs

Slipknot Chords & Tabs

Version: 1 Type: Tab 9 ratings
1 star 2 stars 3 stars 4 stars 5 stars
comments

Vermilion Pt Tab

   
Song: Vermilion Pt. 2
Band: Slipknot
Album: Vol. 3: (The Subliminal Verses)
Tabbed By: Frank T.
E-Mail: for_the_workforce182@myway.com

Tuning: E
        B
        G
        D
        A
        D


GTR I/GTR II
(Acoustic Guitars)



I know this aint Slipknot's tuning but this is probably accurate on 
a regular tuning So you dont have to tune your guitar all the way 
down, Just drop the string.

_______________________________
 /=slide                       
 p=pull
 h=hammer
( )=hold down/not harmonics
_______________________________






Intro/Verse
GTR I
(Acoustic)
E------------------------------------------------------
B------------------------------------------------------
G---1---3----------------------------------------------
D---------2--1---1h2p1-2-1-----------------------------
A---------------------------(2)------------------------
D------------------------------------------------------



Intro/Verse
GTR II
(Acoustic)
E---------------------------------------------------------------
B---------------------------------------------------------------
G---------------------------------------------------------------
D------666-888--999--8888/9/8----999999999999999999-------------
A------666-666--777--6666/7/6-0--999999999999999999-------------
D------666--------------------0--999999999999999999-------------



GTR II
I Dont Know What To Do......
E-------------------------------------------------------------------
B-------------------------------------------------------------------
G-------------------------------------------------------------------
D---77777777777777777777------99999999999999999999999999999---------
A---77777777777777777777------99999999999999999999999999999---------
D---77777777777777777777------99999999999999999999999999999---------

[ Tab from: http://www.guitartabs.cc/tabs/s/slipknot/vermilion_pt_tab.html ]
GTR II
But I Wont Let This Build Up....
E--------------------------------------------------------------
B------0----------0-----------0----------0----------0----------
G----6---7p6----6---7p6-----6---7p6----6---7p6----6---7p6------
D--------------------------------------------------------------
A--4----------5----------2-----------4----------5--------------
D--------------------------------------------------------------


GTR I
E----------------------------------------------------
B-----------------------8---7------------------------
G------(7)------(11)---------------------------------
D----------------------------------------------------
A----------------------------------------------------
D----------------------------------------------------



Violin Solo:
E-----------------------------------------------------------
B-----------------------------------------------------------
G-----------------------------------------------------------
D-----------------------------------------------------------
A--(2)-------4-5----------------------------(9)-------------
D----------------(5)---(7)--(11)--9-8-(9)-------------------


GTR II
Backround
E----------------------------------------------------------------
B----------------------------------------------------------------
G----------------------------------------------------------------
D--99999999-11-12---5555555--7777777--11-11--99999999999999------
A--99999999-11-12---5555555--7777777--11-11--99999999999999------
D--99999999-11-12---5555555--7777777--11-11--99999999999999------




Ending:
GTR I
E------------------------------------------------------
B------------------------------------------------------
G---1---3----------------------------------------------
D---------2--1---1h2p1-2-1-----------------------------
A---------------------------(2)------------------------
D------------------------------------------------------


GTR II
E---------------------------------------------------------------
B---------------------------------------------------------------
G---------------------------------------------------------------
D------666-888--999--8888/9/8----999999999999999999-------------
A------666-666--777--6666/7/6-0--999999999999999999-------------
D------666--------------------0--999999999999999999-------------





Comments