Slipknot - Vermilion Part 2 Chords & Tabs

 

Vermilion Part 2 Chords & Tabs

Slipknot Chords & Tabs

Version: 6 Type: Tab 0 ratings
1 star 2 stars 3 stars 4 stars 5 stars
comments

Vermilion Part 2 Tab

   
			     Vermillion Pt.2 -Slipknot
-------------------------------------------------------------------------------
Tabbed by:George(sic)Fan
Email:

Tuning:B,F#,B,E,G#,C#

|-----------------------------------------------------------------------------|
|-----------------------------------------------------------------------------|
|--4----6----12---11---7----6-------------------------------------------------|
|--x----x----xx---xx---x----x-------------------------------------------------|
|--2----4----10---9----5----4-------------------------------------------------|
|-----------------------------------------------------------------------------|
   Intro. Figure the rythm out yourself Gt.1 strumm chords

|---------------------------------------------------------------------------|
|---------------------------------------------------------------------------|
|---------------------------------------------------------------------------|
|----9---11----5P4---0------------------------------------------------------|
|---------------------------------------------------------------------------|
|---------------------------------------------------------------------------|
   Guitar 2 backups that with this

|---3----3------------------------------------------------------------------|
|---5----5------Strumm------------------------------------------------------|
|---3----3------------------------------------------------------------------|
|---5----5------------------------------------------------------------------|
|---3----3------------------------------------------------------------------|
|---------------------------------------------------------------------------|
  And i dont know what to do when she makes me sad
[ Tab from: http://www.guitartabs.cc/tabs/s/slipknot/vermilion_part_2_tab_ver_6.html ]
|---------------------------------------------------------------------------|
|----6p5--6--5---6-5-6p5----6---5----6p5---you-get-the-idea-----------------|
|---------------------------------------------------------------------------|
|---------------------------------------------------------------------------|
|---------------------------------------------------------------------------|
|---------------------------------------------------------------------------|
 Chourus:and i wont let this build up inside of me Gt.1

|---------------------------------------------------------------------------|
|---------------------------------------------------------------------------|
|--------------------------------15--14--Repeat-measure---------------------|
|---12----14--15--14----12--14----------------------------------------------|
|---------------------------------------------------------------------------|
|---------------------------------------------------------------------------|
 Chourus Gt.2

|-------------------------------------------------------------------------------|
|-----------------------5---3---3p2h3-------------------------------------------|
|---7---9--10---9---5---3---1---1-----------------------------------------------|
|---x---x---x---7---3---5---3---3-----------------------------------------------|
|---5---7---8---7---3---3---1---1-----------------------------------------------|
|-----------------7---3---------------------------------------------------------|
 During the violin part strumm all chords figure rhytm out yourself.

Im not a 100% sure of my interpritation of this song but i did my best. Its a pretty 
good start  i must say

-----------15--14-|
12---14-----------|
------------------|
------------------|
------------------|
------------------|
END OF SONG
| /  slide up
| \  slide down
| h  hammer-on
| p  pull-off
| ~  vibrato
| +  harmonic
| x  Mute note
===============================================================================
Comments